Song name
# A B C D E F G H I J K L M N O P Q R S T U V W X Y Z

The Gaslight Anthem - Drive tab

----------------------------------------------------------------------------
			     DRIVE - The Gaslight Anthem
----------------------------------------------------------------------------
tabbed by: me
Tuning: standard

E|---3---3---3-030---0-030--0-030---0-030--0-0305-3-030--0-030--0-030--0-0305|
B|-1---1---1------1-------1------1-------1-------------1------1------1-------|
G|---------------------------------------------------------------------------|
D|---------------------------------------------------------------------------|
A|---------------------------------------------------------------------------|
E|---------------------------------------------------------------------------|

E|-3-030--0-030--0-030--0-030--8888888----------|
B|------1------1------1------/66666666----------|
G|----------------------------------------------|
D|----------------------------------------------|
A|----------------------------------------------|
E|----------------------------------------------|

i might try to tab the rest of the song at some point, but it would be great if someone 
could do it :)
Tap to rate this tab
 
# A B C D E F G H I J K L M N O P Q R S T U V W X Y Z