The Gaslight Anthem - She Loves You tab

SHE LOVES YOU
by THE GASLIGHT ANTHEM

Tabbed by: caug
Email: caugolm@gmail*com

Tuning: one step down

Intro
e------------------------------|
B-----1-----1-----1-----1------|
G----2-2---2-2---2-2---2-2-----|
D--------------3---------------|   x2
A--0-----------------3---------|
E--------3---------------------|

e------------------------------|
B-----1-----1-----1-----1------|
G----2-2---2-2---2-2---2-2-----|
D--------------3---------------|
A--0-----2-----------3---------|
E------------------------------|

e------------------------------|
B-----1-----1-----1-----1------|
G----2-2---2-2---2-2---2-2-----|
D--------------3---------------|
A--0-----------------3---------|
E--------3---------------------|

1st verse
e------------------------------|
B-----1-----1-----1-----1------|
G----2-2---2-2---2-2---2-2-----|
D--------------3---------------|
A--0-----2-----------3---------|
E------------------------------|
On President Street you'll find the sisters

e------------------------------|
B-----1-----1-----1-----1------|
G----2-2---2-2---2-2---2-2-----|
D------------------------------|
A--0-----------0-----3---------|
E--------3---------------------|
Prayin over my city's heart

e------------------------------|
B-----1-----1-----1-----1------|
G----2-2---2-2---2-2---2-2-----|
D--------------3---------------|
A--0-----------------3---------|
E--------3---------------------|
While Union Avenue turns to its disciple

e------------------------------|
B-----1-----1-----1-----1------|
G----2-2---2-2---2-2---2-2-----|
D------------------------------|
A--0-----------0-----3---------|
E--------3---------------------|
Who feels the pressure heat comin on hot

e---3--3--3--3-----------------|
B---3--3--3--3-----------------|
G------------------------------|
D------------------------------|
A------------------------------|
E---3--------------------------|

Chorus
e------------------------------|
B-----1-----1-----1-----1------|
G----2-2---2-2---2-2---2-2-----|
D------------------------------|   x3
A--3-----2-----0-----3---------|
E------------------------------|
And if all was well and your heart could find the words
Would we be for better baby would we be for worse
And if there was a way navigate your seas

e--------------3-3-3-3---------|
B-----1-----1--3-3-3-3---------|
G----2-2---2-2-----------------|
D------------------------------|
A--3-----3---------------------|
E--------------3---------------|
If tonight my true love did belong to me

Bridge
e------------------------------|
B-----1-----1-----1-----1------|
G----2-2---2-2---2-2---2-2-----|
D------------------------------|   x2
A--0-----------0-----3---------|
E--------3---------------------|

Verse 2
e------------------------------|
B-----1-----1-----1-----1------|
G----2-2---2-2---2-2---2-2-----|
D------------------------------|   x2
A--0-----------0-----3---------|
E--------3---------------------|
And Juliette she's smokin by the window
Sayin stone cold 'I believe in you, Romeo'

e------------------------------|
B-----1-----1------------1-----|
G----2-2---2-2----2-0---2-2----|
D----------------2-------------|
A--0-----------0------3--------|
E--------3---------------------|
And the raindrops and the cars keep on fallin from off the bars

e------------------------------|
B-----1-----1-----1-----1------|
G----2-2---2-2---2-2---2-2-----|
D--------------3---------------|
A--0-----------------3---------|
E--------3---------------------|
Blockin out a good song, playin on the radio

e---3--3--3--3-----------------|
B---3--3--3--3-----------------|
G------------------------------|
D------------------------------|
A------------------------------|
E---3--------------------------|

Chorus
e------------------------------|
B-----1-----1-----1-----1------|
G----2-2---2-2---2-2---2-2-----|
D------------------------------|   x3
A--3-----2-----0------3--------|
E------------------------------|
And if all was well and your heart could find the words
Would we be for better baby would we be for worse
And if there was a way navigate your seas

e---------3-3-3-3-3-3----------|
B-----1---3-3-3-3-3-3----------|
G----2-2-----------------------|
D------------------------------|
A--3---------------------------|
E------------------------------|
If tonight my true love did belong to me

Next part

e--3--3--3--3--3--3--3--3------|
B--3--3--3--3--3--3--3--3------|
G------------------------------|
D--------3---------------------|    x2
A--3-----------3---------------|
E------------------------------|
Well I've been down, I've been out, had my head and my heart kicked around
I've been down, I've been out, had my head and my heart kicked around

e--------3-3-3-3-3-3-----------|
B-----1--3-3-3-3-3-3-----------|
G----2-2-----------------------|
D--------3---------------------|
A--0---------------------------|
E------------------------------|
In the quiet of the night Romeo's mind is burnin

e---------3-3-3-3-3-3-3-3-3-3-3-3-3-3-3-|
B-----1---3-3-3-3-3-3-3-3-3-3-3-3-3-3-3-|
G----2-2--------------------------------|
D---------------------------------------|
A--0-----3------------------------------|
E---------------------------------------|
From puttin all of his word into them sermons

e------------------------------|
B-----1-----1-----1-----1------|
G----2-2---2-2---2-2---2-2-----|
D--------------3---------------|   x2
A--0-----3-----------2---------|
E------------------------------|

e---3-3-3-3-3-3-3-3------------|
B---3-3-3-3-3-3-3-3------------|
G------------------------------|
D------------------------------|
A------------------------------|
E------------------------------|

Chorus
e------------------------------|
B-----1-----1-----1-----1------|
G----2-2---2-2---2-2---2-2-----|
D------------------------------|   x3
A--3-----2-----0------3--------|
E------------------------------|
And if all was well and your heart could find the words
Would we be for better baby would we be for worse
And if there was a way navigate your seas

e---------3-3--3-3-3-3-3-3-3-3-|
B-----1---3-3--3-3-3-3-3-3-3-3-|
G----2-2-----------------------|
D------------------------------|
A--3-----2---------------------|
E--------------3---------------|
If tonight my true love did belong to me

e------------------------------|
B-----1-----1-----1-----1------|
G----2-2---2-2---2-2---2-2-----|
D---------------3--------------|   x4
A--0-----------------3---------|
E--------3---------------------|
Do you miss her right now?    did belong to me
Do you miss her right now?    did belong to me
Do you miss her right now?    did belong to me
Do you miss her right now?    did belong to me

e------------------------------|
B-----1-----1-----1-1----------|
G----2-2---2-2---2--0----------|
D--------------3---------------|
A--0-----2---------------------|
E------------------------------|
Tap to rate this tab
 
# A B C D E F G H I J K L M N O P Q R S T U V W X Y Z