Song name
# A B C D E F G H I J K L M N O P Q R S T U V W X Y Z

The Gaslight Anthem - 45 tab

So there was no Tab for this song on the internet, so i decided to tab this song myself.

Drop D Tuning

Intro 
 Part1       x4      Part2
E|-----------------|------------------------------------------------|
B|-----------------|--11~-------------------------------------------|
G|-----3------3----|-----12-10-10-12-10-8-8-10----------------------|
D|---1------1---1--|------------------------------------------------|
A|-3------1--------|------------------------------------------------|
D|-----------------|------------------------------------------------|


Verse1                     Pre-Chorus
           x5             
E|-----------------------|-------------------------------------------|
B|-----------------------|-------------------------------------------|
G|-888888333355555577777-|-------------------------------------------|
D|-888888333355555577777-|--666666888888-----------------------------|
A|-666666111133333355555-|--666666888888-----------------------------|
D|-----------------------|--666666888888-----------------------------|




Chorus                         Post-Chorus
       2x
E|--------------------------|----------------------------------------|
B|--------------------------|----------------------------------------|
G|-555555-------------333333|-----333355555--------------------------|
D|-5555556666661111111333333|-111133335555566666---------------------|
A|-3333336666661111111111111|-111111113333366666---------------------|
D|-------6666661111111------|-1111---------66666---------------------|

Intro (Part 1 & 2) 
Verse 
Pre-Chorus 
Chorus
Post-Chorus 

Bridge 
E|--------------------------------------------------------------------|
B|--------------------------------------------------------------------|
G|-888810101012121210101088877775777778755535557778881012131217192021-|
D|-xxxxxxxxxxxxxxxxxxxxxxxxxxxxxxxxxxxxxxxxxxxxxxxxxxxxxxxxxxxxxxxxxx-|
A|-6666-8-8-8101010-8-8-86665555355555653331333555666-810111015171819-|
D|--------------------------------------------------------------------|



E|--15-18-16-15-13-18-20-18-22---------------------------------------|
B|-------------------------------------------------------------------|
G|-------------------------------------------------------------------|
D|-------------------------------------------------------------------|
A|-------------------------------------------------------------------|
D|-------------------------------------------------------------------|

Intro 
Chorus 
Post-Chorus 
Tap to rate this tab
# A B C D E F G H I J K L M N O P Q R S T U V W X Y Z