Song name
# A B C D E F G H I J K L M N O P Q R S T U V W X Y Z

The Ghost Inside - Between The Lines tab

The Ghost Inside - Between the Lines

Tabbed by: Jonathan Salas
E-mail: jonoxcore@hotmail.com
Youtube:  http://www.youtube.com/user/ToothGrinderr
Facebook:  www.facebook.com/jjonoooo

It's taken me a while to get around to tabbing this, so here it is finally.  Ive made 
since my original video so this tab should be alot more accurate, but still not 100% 
 Please, if you've got any corrections, leave a comment and i'll fix it.

Oh yeah, there aren't any timings or palm mutes listed in the tab, you'll have to listen 
the song for those.  Sorry, but its only my 2nd tab  =/.


Tuning: Drop A#   (A# F A# D# G# C)

Guitar 1:
|------8---------------------------|
|---------8/10-----------8--5------|
|--7-----------10------5------5----|
|----7------------8--7----------7--|  x2
|----------------------------------|
|----------------------------------|

Guitar 2:
|---------------------|
|---------------------|
|---------------------|
|--8----10----0----3--| x2
|--8----10----0----3--|
|--8----10----0----3--|


Guitar 1:
|-----8-------8----------------------------------------------------------|
|----------------------10---------10--------8-------8----5-------5-------|
|---7---7---7---7---10----10---10----10---5---5---5---5----5---5---5---5-|
|-7-------7-------8----------8----------7-------7------------7-------7---| x2
|------------------------------------------------------------------------|
|------------------------------------------------------------------------|

Guitar 2 plays the same chords as before, they are just strummed in a cool pattern.

Guitar 1+2: (the tabs for this are a bit sketchy sorry, its all abotu the timing).
|----------------------------------------------------|
|----------------------------------------------------|
|----------------------------------------------------|
|--8-88--8-88--8-88--8-88--8-88--8-88-8-12-12-12-12--| x4
|--8-88--8-88--8-88--8-88--8-88--8-88-8-12-12-12-12--|
|--8-88--8-88--8-88--8-88--8-88--8-88-8-12-12-12-12--|


Guitar 1: (refer to the song for timing)
|---------------------------------------------------------|
|---------------------------------------------------------|
|---------------------------------------------------------|
|--0-0-0-0--0000-0-0-0-0---0-0-0-0--0000-0-0-0-0--0-12/0--| x2
|--0-0-0-0--0000-0-0-0-0---0-0-0-0--0000-0-0-0-0--0-12/0--|
|--0-0-0-0--0000-0-0-0-0---0-0-0-0--0000-0-0-0-0--0-12/0--|


Guitar 2:  (strummed, listen to the song for the pattern)
|-----------|    End with        |---------------|
|-----------|    this (once      |---------------|
|--10---14--|    again, no       |--10/12/14\10--|
|-----------| x2 strumming       |---------------|
|--8----12--|    patterns        |--8-/10/12\8---|
|-----------|    refer to song)  |---------------|

Guitars 1+2:
|----------------------------------------------|
|----------------------------------------------|
|----------------------------------------------|
|--0-0-1---0-0-1--0-00----0-0-1---0-0-1--0-00--|
|--0-0-1---0-0-1--0-00----0-0-1---0-0-1--0-00--|
|--0-0-1---0-0-1--0-00----0-0-1---0-0-1--0-00--|

WHAT DO YOU STAND FOR?!
Guitars 1+2:
|---------------------------------|
|---------------------------------|
|---------------------------------|
|--0-0-0-0--0000-0-0-0-0--0--0-0--| x4
|--0-0-0-0--0000-0-0-0-0--0--0-0--|
|--0-0-0-0--0000-0-0-0-0--0--0-0--|

Guitar 3:
|-------------------------------------|
|--10---------10----10-----10--5------|
|-----10---10----10----10--------5----|
|--------8----------------8--------7--|
|-------------------------------------|
|-------------------------------------|

Guitar?: (having trouble with this bit, so its a primarily the right channels playing, 
once again, sorry for just putting the chords, not the timing or how many strums)
|--------------------------------------------------------|
|--------------------------------------------------------|
|------12--10-9--5--7--9--10----10--12--14--5--7--9--10--|
|--8-----------------------------------------------------|
|--8---10--8--7--3--5--7--8-----8---10--12--3--5--7--8---|
|--8-----------------------------------------------------|

I've got no clue whats going on from 1:58-2:13 so i've just improvised in my video.


|-----------------------------------|
|-----------------------------------|
|-----------------------------------|
|--0-0-1--0-00--0------------0------|
|--0-0-1--0-00--0--/---------0---/--|
|--0-0-1--0-00--0--/---12-12-0---/--|

|-------------------------------------------------------------------------|
|-------------------------------------------------------------------------|
|-------------------------------------------------------------------------|
|--------0-0-0-0--0-0-0-0-0--0-0-0---------0-0-0-0--0-0-0-0-0-------------|x2
|--------0-0-0-0--0-0-0-0-0--0-0-0---------0-0-0-0--0-0-0-0-0-------------|
|--12-12-0-0-0-0--0-0-0-0-0--1-1-0---12-12-0-0-0-0--0-0-0-0-0--0-0-0-0-0--|

|------8-------------------------|
|----6---6---6/10---------10-----|
|--7-------7------10---10----10--|
|--------------------8-----------|x4
|--------------------------------|
|--------------------------------|

|----------------|
|----------------|
|----------------|
|--0-0--0-0-0-0--|
|--0-0--0-0-0-0--|
|--1-1--0-0-0-0--|
Tap to rate this tab
 
# A B C D E F G H I J K L M N O P Q R S T U V W X Y Z