Song name
# A B C D E F G H I J K L M N O P Q R S T U V W X Y Z

The Glorious Sons - Baby tab

Band: The Glorious Sons
Song: Baby
Tab: D. Huson

G1
E----------------------------------------------------------------I
A----------------------------------------------------------------I
D----------------------------------------------------------------I
G----------------------------------------------------------------I
B---8h10--10--10--10--8h10--10--10--8h10--10--10--10--10--10-----I
E-----------------------------------------------8----------------I

                                                        X 2
E----------------------------------------------------------------I
A----------------------------------------------------------------I
D----------------------------------------------------------------I
G----------------------------------------------------------------I
B---8h10--10--10--10--8h10--10--10--8h10--10--10---10--10--10----I
E-----------------------------------------------10---------------I

G2   G     A              G     A   C     D             C      D
E----3--/--5--5--5--5--\--3--/--5--------------------------------I
A----5--/--7--7--7--7--\--5--/--7--------------------------------I
D-----------------------------------3--/--5--5--5--5--\--3--/--5-I
G-----------------------------------5--/--7--7--7--7--\--5--/--7-I
B----------------------------------------------------------------I
E----------------------------------------------------------------I
   
G2 Verse
    G     A              G       A             X 4      C   D
E---3--/--5--5--5--5--\--3--/--5----------------------------------I
A---5--/--7--7--7--7--\--5--/--7-------------------------3--5-----I
D--------------------------------------------------------5--7-----I
G-----------------------------------------------------------------I
B-----------------------------------------------------------------I
E-----------------------------------------------------------------I

http://theglorioussons.com/
Tap to rate this tab
# A B C D E F G H I J K L M N O P Q R S T U V W X Y Z