Song name
# A B C D E F G H I J K L M N O P Q R S T U V W X Y Z

The Go-gos - We Got The Beat tab

Help us improve GuitareTab! Take a short survey!
tuning - standard

Intro
e|--------------------------|---------------------|-----------------------|
B|--------------------------|---------------------|-----------------------|
G|--------------------------|---------------------|-----------------------|
D|--7--7--x--x--x--x--x--x--|-7--7--x--x--x--x--x-|-7--7--x--x--x--x--x--x|
A|--7--7--x--x--x--x--x--x--|-7--7--x--x--x--x--x-|-7--7--x--x--x--x--x--x|
E|--5--5--x--x--x--x--x--x--|-5--5--x--x--x--x--x-|-5--5--x--x--x--x--x--x|

See the people walking down the street
Fall in line just watching all their feet
They don't know where they want to go
But they're walking in time

Chorus:
(guitar)
e|--------------------------|----------------3----|
B|-----------------3--------|----------------3----|
G|-----------------2--------|----------------0----|
D|-----------------0--------|----------------0----|
A|--------------------------|---------------------|
E|--------------------------|----------------3----|
    They got the beat,        they got the beat

e|--------------------------|---------------------|
B|--------------------------|---------------------|
G|--------------------------|--5------------------|
D|-----------------3--------|--5------------------|
A|-----------------3--------|--3------------------|
E|-----------------1--------|---------------------|
    They got the beat,       yeah they got the beat

e|--------------------------|---------------------|-----------------------|
B|--------------------------|---------------------|-----------------------|
G|--------------------------|---------------------|-----------------------|
D|--7--7--x--x--x--x--x--x--|-7--7--x--x--x--x--x-|-7--7--x--x--x--x--x--x|
A|--7--7--x--x--x--x--x--x--|-7--7--x--x--x--x--x-|-7--7--x--x--x--x--x--x|
E|--5--5--x--x--x--x--x--x--|-5--5--x--x--x--x--x-|-5--5--x--x--x--x--x--x|

All the kids just getting out of school
They can't wait to hang out and be cool
Hang around 'til quarter after twelve
That's when they fall in line

repeat chrous

Solo:
(guitar)
e-------------------------------------------------------------|
B-------------------------------------------------------------|
G--------------5-5-7-7-5-5--------------------5-5-7-7-5-5-----|
D------5-5-7-7-------------7-7--------5-5-7-7-------------7-7-|
A--7-7----------------------------7-7-------------------------|
E-------------------------------------------------------------|

e-------------------------------------------------------------|
B-------------------------------------------------------------|
G--------------7-7-9-9-7-7--------------------7-7-9-9-7-7-----|
D------7-7-9-9-------------9-9--------7-7-9-9-------------9-9-|
A--9-9----------------------------9-9-------------------------|
E-------------------------------------------------------------|

e-------------------------|----------------------|
B-------------------------|----------------------|
G-------------------------|----------------------|
D--------5---7--5---------|--------5---7--5------|
A--0--7------------7------|--0--7------------7---|
E-------------------------|----------------------|

e-------------------------|----------------------|
B-------------------------|----------------------|
G-------------------------|----------------------|
D--------5---7--5---------|--------5---7--5------|
A--0--7------------7------|--0--7------------7---|
E-------------------------|----------------------|


Go-go music really makes us dance
Do the pony puts us in a trance
do the watusi just give us a chance
That's when they fall in line

repeat chorus

We got the beat
We got the beat
We got the beat
Yeah
We got the beat
Everybody get on your feet
We know you can dance to the beat
Jumpin' - get down
Round and round and round

e--------------------------------------------|
B--------------------------------------------|
G--------------------------------------------|
D--2-2-2-2-2-2-2-2-2-2-2-2-2-2-2-2-----------|
A--2-2-2-2-2-2-2-2-2-2-2-2-2-2-2-2-----------|
E--0-0-0-0-0-0-0-0-0-0-0-0-0-0-0-0-----------|

e-------------------------|----------------------|
B-------------------------|----------------------|
G-------------------------|----------------------|
D--------5---7--5---------|--------5---7--5------|
A--0--7------------7------|--0--7------------7---|
E-------------------------|----------------------|

e-------------------------|----------------------|
B-------------------------|----------------------|
G-------------------------|----------------------|
D--------5---7--5---------|--------5---7--5------|
A-0-0-7------------7------|-0-0-7------------7---|
E-------------------------|----------------------|

e-------------------------|----------------------|
B-------------------------|----------------------|
G-------------------------|----------------------|
D--------5---7--5---------|--------5---7--5------|
A-0-0-7------------7------|-0-0-7------------7---|
E-------------------------|----------------------|
Related for We Got The Beat tab