Song name
# A B C D E F G H I J K L M N O P Q R S T U V W X Y Z

The Go Team - My World tab

-------------------------------------------------------------------------------
			     MY WORLD - The Go! Team
-------------------------------------------------------------------------------

Tabbed by: TomleHat
Email: thom25j@yahoo.co.uk

Tuning: Standard

This tune is such a good song to play acoustically without a plectrum, like 
black mountainside or already dead by Beck

CAPO 2ND FRET

MAIN RIFF x 2.5
e|-------------------|----------------|---2------2---2-|------------------|
B|-----11p9----------|----9-----------|----------------|------------------|
G|----------11----11-|-------11----11-|----------------|---11-10----------|
D|-------------11----|-2--------11----|----------------|---------10----10-|
A|---9---------------|----------------|-2----------9---|------------10----|
E|-2-----------------|----------------|-----9/11-------|-9----------------|

e|-------------------|----------------|---------------|----------------------|
B|-----11p9----------|----9-----------|---9-----------|--------10p9----------|
G|----------11----11-|-------11----11-|------11----11-|------9------11----11-|
D|-------------11----|-2--------11----|---------11----|-9h11-----------11----|
A|---9---------------|----------------|-2-------------|----------------------|
E|-2-----------------|----------------|---------------|----------------------|

CHORUS RIFF
e|-----7---------------------------5---------------------|
B|-------------------9---------------5-----------7-------|
G|-------8-------------9---------------6-----------7---7-|
D|---------9-------9-----9---------------------7-----7---|
A|---9-----------7---------------7-----------5-----------|
E|-7---------------------------5-------------------------|

e|-----7-------------3-------------5-------------------|
B|-------8-------------5-------------6-----------6-----|
G|---7-----7-------------5-------5-----5-----------7---|
D|-5---------------5-----------3---------------------8-|
A|---------------3-----------------------------8-------|
E|-------------------------------------------6---------|

e|---------------------------------------------------------------4-|
B|-----4-------------6-------------4---------------6------------6--|
G|-------4-------------6-------------4---4-----------6---------6---|
D|---4-----4-------6-----6-------4-----4---------6-----6------6----|
A|-2-------------4-------------2---------------4-------------4-----|
E|-----------------------------------------------------------------|

MAIN RIFF x2 (swapping around the 1st and 2nd part)
CHORUS RIFF
MAIN RIFF x3 (on the 3rd time, play the 1st half twice and not the 2nd half)

e|-----9-|
B|----11-|
G|---11--|
D|--11---|
A|-9-----|
E|-------|

| /  slide up
| \  slide down
| h  hammer-on
| p  pull-off
===============================================================================
Tap to rate this tab
# A B C D E F G H I J K L M N O P Q R S T U V W X Y Z