Song name
# A B C D E F G H I J K L M N O P Q R S T U V W X Y Z

The Grid - Swamp Thing tab

THE GRID
SWAMP THING

This has been transposed to guitar from the only other guitar tab for this song on the net.
This being the emaculate Guitar Pro version (which is tabbed for the Banjo).

It's only a bit, but hopefully it will be useful.

      E    S  S  S  S  E    S  S  S  S  S  S  E
E||----------------------------------------------|
B||----------------------------------------------|
G||---9---------------------------------9--------|
D||--10b-------------------------------10-12-----|
A||-------12-12-12-12-11b--12-12-12-12-------12--|
E||----------------------------------------------|


   E    S  S  S  S  E    S  S  S  S  S  S  E
----------------------------------------------|
----------------------------------------------|
---9---------------------------------9--------|
--10b-------------------------------10-12-----|
-------12-12-12-12-11b--12-12-12-12-------12--|
----------------------------------------------|


   E    S  S  S  S  E    S  S  S  S  S  S  E
----------------------------------------------|
----------------------------------------------|
---9---------------------------------9--------|
--10b-------------------------------10-12-----|
-------12-12-12-12-11b--12-12-12-12-------12--|
----------------------------------------------|


   E    S  S  S  S  E    S  S  S  S  S  S  E
----------------------------------------------|
----------------------------------------------|
---9---------------------------------9-----9--|
--10b-------------------------------10-12-10--|
-------12-12-12-12-11b--12-12-12-12-----------|
----------------------------------------------|


   E    S  S  S  S  E    S  S  S  S  S  S  E
----------------------------------------------|
----------------------------------------------|
---9---------------------------------9--------|
--10b-------------------------------10-12-----|
-------12-12-12-12-11b--12-12-12-12-------12--|
----------------------------------------------|


   E    S  S  S  S  E    S  S  S  S  S  S  E
----------------------------------------------|
----------------------------------------------|
---9---------------------------------9-----9--|
--10b-------------------------------10-12-----|
-------12-12-12-12-11b--12-12-12-12-------12--|
----------------------------------------------|


   E    S  S  S  S  E    S  S  S  S  S S S S
---------------------------------------------|
---------------------------------------------|
---9-----------------------------------9-9-9-|
--10b-------------------------------10-------|
-------12-12-12-12-11b--12-12-12-12----------|
---------------------------------------------|


   S  S S  S S  S  S  S S  S S  S S  S  S  S
---------------------------------------------|
---------------------------------------------|
--12-12---12---12-12-12---12---12-9----------|
------------------------------------12-------|
---------------------------------------12-12-|
---------------------------------------------|

...Next Bit...

   |--3--| |--3-|  |-3-|  |-3-|  |--3-|  |-3-|  |--3-| |--3-|
   S  S  S S S  S  S S S  S S S  S S  S  S S S  S S  S S S  S
--------------------------------------------------------------|
--10--L-10-----10-10-L---10-L---10-L-10-10-L--------10--------|
-----------9-L---------9---------------------9-12-L----9-L-12-|
--------------------------------------------------------------|
--------------------------------------------------------------|
--------------------------------------------------------------|


   |--3--| |--3-|  |-3-|  |-3-|  |--3-|  |-3-|  |--3-| |--3-|
   S  S  S S S  S  S S S  S S S  S S  S  S S S  S S  S S S  S
--------------------------------------------------------------|
--10--L-10-----10-10-L---10-L---10-L-10-10-L--------10--------|
-----------9-L---------9---------------------9-12-L----9-L-12-|
--------------------------------------------------------------|
--------------------------------------------------------------|
--------------------------------------------------------------|


   |--3--| |--3-|  |-3-|  |-3-|  |--3-|  |-3-|  |--3-| |--3-|
   S  S  S S S  S  S S S  S S S  S S  S  S S S  S S  S S S  S
--------------------------------------------------------------|
--10--L-10-----10-10-L---10-L---10-L-10-10-L--------10--------|
-----------9-L---------9---------------------9-12-L----9-L-12-|
--------------------------------------------------------------|
--------------------------------------------------------------|
--------------------------------------------------------------|


   E    S  S  S  S  E    S  S  S  S  S  S  E
----------------------------------------------|
----------------------------------------------|
---9---------------------------------9-----9--|
--10b-------------------------------10-12-10--|
-------12-12-12-12-11b--12-12-12-12-----------|
----------------------------------------------|


   |--3--| |--3-|  |-3-|  |-3-|  |--3-|  |-3-|  |--3-| |--3-|
   S  S  S S S  S  S S S  S S S  S S  S  S S S  S S  S S S  S
--------------------------------------------------------------|
--10--L-10-----10-10-L---10-L---10-L-10-10-L--------10--------|
-----------9-L---------9---------------------9-12-L----9-L-12-|
--------------------------------------------------------------|
--------------------------------------------------------------|
--------------------------------------------------------------|


   |--3--| |--3-|  |-3-|  |-3-|  |--3-|  |-3-|  |--3-| |--3-|
   S  S  S S S  S  S S S  S S S  S S  S  S S S  S S  S S S  S
--------------------------------------------------------------|
--10--L-10-----10-10-L---10-L---10-L-10-10-L--------10--------|
-----------9-L---------9---------------------9-12-L----9-L-12-|
--------------------------------------------------------------|
--------------------------------------------------------------|
--------------------------------------------------------------|


   |--3--| |--3-|  |-3-|  |-3-|  |--3-|  |-3-|  |--3-| |--3-|
   S  S  S S S  S  S S S  S S S  S S  S  S S S  S S  S S S  S
--------------------------------------------------------------|
--10--L-10-----10-10-L---10-L---10-L-10-10-L--------10--------|
-----------9-L---------9---------------------9-12-L----9-L-12-|
--------------------------------------------------------------|
--------------------------------------------------------------|
--------------------------------------------------------------|


   S  S S  S S  S  S  S S  S S  S S  S  S  S
---------------------------------------------||
---------------------------------------------||
--12-12---12---12-12-12---12---12-9----------||
------------------------------------12-------||
---------------------------------------12-12-||
---------------------------------------------||


[thats it for now]

Duration Legend
---------------
W - whole
H - half
Q - quarter
E - 8th
S - 16th
T - 32nd
X - 64th
. - note dotted
|-n-|  - n-tuplets


Tablature Legend
----------------
L - tied note
x - dead note
g - grace note
(n) - ghost note
> - accentuded note
NH - natural harmonic
AH - artificial harmonic
TH - tapped harmonic
SH - semi harmonic
PH - pitch harmonic
h - hammer on
p - pull off
b - bend
br - bendRelease
pb - preBend
pbr - preBendRelease
brb - bendReleaseBend
\n/ - tremolo bar dip
\n - tremolo bar dive
-/n - tremolo bar Release up
/n\ - tremolo bar inverted dip
/n - tremolo bar return
-\n - tremolo bar Release down
S - shift slide
s - legato slide
/ -  slide into from below or out of upwards
\ -  slide into from above or out of downwards
~ - vibrato
W - wide vibrato
tr - trill
TP - tremolo picking
T - tapping
S - slap
P - pop
< - fade in
^ - brush up
v - brush down
Tap to rate this tab
# A B C D E F G H I J K L M N O P Q R S T U V W X Y Z