Song name
# A B C D E F G H I J K L M N O P Q R S T U V W X Y Z

The Happy Hollows - Tell Me tab

Awesome band from Negahdariland, California. It's a shame there isn't more happy 
hollows tabs on here. Their website:

http://thehappyhollows.blogspot.com/

This is such an underappreciated song. But seriously though don't make me tab all 
their songs myself =D
 
  Song:  Tell Me

Artist:  The Happy Hollows

 Album:  Bunnies & Bombs EP

Tab by Fiishes


                                      CAPO: 3



                                       Verse:

                                                                           X4

e|-----------------------------------------|------------------------------------------|
B|-----------------------------------------|------------------------------------------|
G|------------------------------1--------0-|-----------------------------1--------0---|      
D|---------------------------0-------0-----|--------------------------0-------0-------|      
A|-------2---------0-----------------------|------2---------0-------------------------|
E|--0---------0h2-------0h2-------(0)------|-0h2-------0h2-------0h2-------(0)--------|

    
   Then:   
 
                            0:28       "With everybody"

      C                              Am    
e|---------------------------------|--------------------------------|
B|---------------1---------------1-|------------0h1-------------0---|
G|-------0---------------0---------|-----2--------------2-----------|
D|------------2---------------2----|----------2--------------2------|
A|----3--------------3-------------|-0--------------0---------------|
E|---------------------------------|--------------------------------|

   Alternate between that and the verse until:
                                                                             
                            1:08       "You love him so.."   
                                                                           X3
      C                              Am                        
e|---------------------------------|----------------------------------------|    
B|---------------1---------------1-|------------0h1-------------0-----------|
G|-------0---------------0---------|-----2--------------2-------------------|
D|------------2---------------2----|----------2--------------2--------------|
A|----3--------------3-------------|-0--------------0-----------------------|
E|---------------------------------|----------------------------------------|

      Em                                                                           
e|----------------------------------|---------------------------------------|
B|----------------0---------------0-|-------------0--------------0----------|
G|--------0---------------0---------|-----0--------------0------------------|
D|-------------2---------------2----|----------2--------------2-------------|
A|-----2--------------2-------------|-2---------------2---------------------|
E|----------------------------------|---------------------------------------|

      

   Then this once:

      C                              Am                        
e|---------------------------------|----------------------------------------|    
B|---------------1---------------1-|------------0h1-------------0-----------|
G|-------0---------------0---------|-----2--------------2-------------------|
D|------------2---------------2----|----------2--------------2--------------|
A|----3--------------3-------------|-0--------------0-----------------------|
E|---------------------------------|----------------------------------------|

   Then continue alternating between the verse and 
   the second figure and end with this variation:

                              1:59

e|-----------------------------------------|----------------------------------------------|
B|-----------------------------------------|----------------------------------------------|
G|------------------------------1--------0-|----------------------------------------------|
D|---------------------------0-------0-----|----2----2------0----0------2----2------------|
A|-------2---------0-----------------------|-------2-----------0-----------2--------------|
E|--0---------0h2-------0h2-------(0)------|-0-----------0-----------0-----------0--------|
Tap to rate this tab
# A B C D E F G H I J K L M N O P Q R S T U V W X Y Z