Song name
# A B C D E F G H I J K L M N O P Q R S T U V W X Y Z

The Holloways - Generator tab

THE HOLLOWAYS
GENERATOR

THIS IS BASED ON THE ALBUM VERSION, OBVIOUSLY IT'S ACTUALLY PLAYED ON 2
GUITARS, BUT I'VE JUST TABBED THE LEAD WITH A FEW PARTS TAKEN FROM THE
RHYTHM. I'M SURE IT'S NOT PERFECT, BUT I RECKON IT SOUNDS PRETTY CLOSE.

~ - LET RING
x - DEAD NOTE
V - VIBRATO
()- GHOST

e|-------------------------------------------------------|
B|-------------------------------------------------------|
G|-------------------------------------------------------|	REST BETWEEN 1ST & 2ND (0:06-0:11)
D|-------5-------5------------------5-------5------------|	SLIDE DOWN AT BEGINING OF 2ND PLAY
A|-----7X--8-7-5------------------7X--8-7-5--------5-----|
E|-888------------X88-7-5-3~--888------------X88-7---8~~-| X3 

0:17
e|-12p8--12p8--12p8---8----8--12p8--12p8--12p8---8-10-8--|
B|-----8-----8-----12---10--------8-----8-----12---------|
G|-------------------------------------------------------|
D|-------------------------------------------------------|
A|-------------------------------------------------------|
E|-------------------------------------------------------| x2

0:26
e|------|
B|-xx8--|
G|-xx9--|
D|-xx10-|
A|-xx10-|
E|------| x16

0:41
e|-------------------------|
B|-------------------------|
G|-------------------------|
D|--9~~--10-10--9-7-10-9-7-|
A|-7-----------------------|
E|-------------------------| x2

0:49
e|------|      e|------|      e|------|      e|--------------|
B|-xx8--|      B|-xx10-|      B|-xx8--|      B|-10101010-12~-|
G|-xx9--|      G|-xx10-|      G|-xx9--|      G|-10101010-12~-|
D|-xx9--|      D|-xx10-|      D|-xx9--|      D|-10101010-12~-|
A|-xx7--|      A|-xx8--|      A|-xx7--|      A|-8-8-8-8--10~-|
E|------| x4   E|------| x4   E|------| x4   E|--------------|

0:57
e|------------8--8--------------10-10-|
B|-XX8--XX8---10-10--XX8--XX8---12-12-|
G|-XX9--XX9---10-10--XX9--XX9---12-12-|
D|-XX10-XX10--10-10--XX10-XX10--12-12-|
A|-XX10-XX10---------XX10-XX10--------|
E|------------------------------------| x2

1:05
e|-12p8--12p8--12p8---8----8--12p8--12p8--12p8---8-10-8--|
B|-----8-----8-----12---10--------8-----8-----12---------|
G|-------------------------------------------------------|
D|-------------------------------------------------------|
A|-------------------------------------------------------|
E|-------------------------------------------------------| x2
	
REST 1:14-1:18
e|------|
B|-xx8--|
G|-xx9--|
D|-xx10-|
A|-xx10-|
E|------| x16

1:30
e|-------------------------|
B|-------------------------|
G|-------------------------|
D|--9~~--10-10--9-7-10-9-7-|
A|-7-----------------------|
E|-------------------------| X2

1:37
e|------|      e|------|      e|------|      e|--------------|
B|-xx8--|      B|-xx10-|      B|-xx8--|      B|-10101010-12~-|
G|-xx9--|      G|-xx10-|      G|-xx9--|      G|-10101010-12~-|
D|-xx9--|      D|-xx10-|      D|-xx9--|      D|-10101010-12~-|
A|-xx7--|      A|-xx8--|      A|-xx7--|      A|-8-8-8-8--10~-|
E|------| x4   E|------| x4   E|------| x4   E|--------------|

1:44
e|-----------------------------------|
B|-----------------------------------|
G|----12-----10-9-----12-12---10-9---|
D|-10----10--------10------10--------|
A|-----------------------------------|
E|-----------------------------------|

1:49
e|--------------------88--88-888-1515-151515-1717-1515-2020202020202020202020~-|
B|---88------1010---88--8-88-888-1717-171717-1717-1717-------------------------|
G|-99--9-1010----10------------------------------------------------------------|
D|-----------------------------------------------------------------------------|
A|-----------------------------------------------------------------------------|
E|-----------------------------------------------------------------------------|

1:57
e|-20-19-17-19v--17-15----------------------------------------|
B|---------------------17-15-------------15-------------------|
G|---------------------------17\12-14-17----17-14-12----------|
D|---------------------------------------------------15-14v~--|
A|------------------------------------------------------------|
E|------------------------------------------------------------|

2:04
e|----------------------------|    e|-----------------------| 2:13
B|----------------------------|    B|-------------------8~~-|
G|-14-12----------------------|    G|-------------------9~~-|
D|-------14-12-12h14p12\10----|    D|-------10-12--10---10~-|
A|-------------------------12-|    A|-10-12-------------10~-|
E|----------------------------| x2 E|-----------------------|

2:17
e|-----|
B|-8~~-|
G|-9~~-|
D|-10~-|
A|-10~-|
E|-----|

2:20
e|-----------------------------------------|
B|-xx8--xx8--xx10-xx10-xx8--xx8--xx12-xx12-|
G|-xx9--xx9--xx10-xx10-xx9--xx9--xx12-xx12-|
D|-xx10-xx10-xx10-xx10-xx10-xx10-xx12-xx12-|
A|-xx10-xx10-xx8--xx8--xx10-xx10-xx10-xx10-|
E|-----------------------------------------| x4

2:36
e|---------------8-8--8-8-----------------1010-1010-|
B|-8-8--8--8-8---1010-1010--8-8--8--8-8---1212-1212-|
G|-9-9--9--9-9---1010-1010--9-9--9--9-9---1212-1212-|
D|-1010-10-1010--1010-1010--1010-10-1010--1212-1212-|
A|-1010-10-1010-------------1010-10-1010------------|
E|--------------------------------------------------| x2

2:44
e|----------------8--8--------------------------|
B|-8-8--8--8-8----10-10---8-8--8--8-8-----------|
G|-9-9--9--9-9----10-10---9-9--9--9-9----4--9---|
D|-1010-10-1010---10-10---1010-10-1010---5--10--|
A|-1010-10-1010-----------1010-10-1010---5--10--|
E|---------------------------------------3--8---| x2	FIN
Tap to rate this tab
# A B C D E F G H I J K L M N O P Q R S T U V W X Y Z