Song name
# A B C D E F G H I J K L M N O P Q R S T U V W X Y Z

The Hunt For Ida Wave - This Is Not My Ideal Way To Spend An Evening tab

right im going to write all the guitar parts i know,
its easy enough to figure out the harmonies, i will post them in another tab after 
this one if i get any requests.
but heres all the parts ive figures out,

Beginning riff:

e|------------------------------------------------------------|
B|------------------------------------------------------------|
G|------------------------------------------------------------|
D|--------------------------------------------------10---10---|
A|-0-----------8---7---10---8---7-----------8---7-------------|
D|-0-0-0-0-0-0---0---0----0---0-7-7-7-7-7-7---7---7----7----7-|
     . . . . .   .   .    .   .   . . . . .   .   .    .    .
e|------------------------------------------------------------|
B|------------------------------------------------------------|
G|------------------------------------77777-------55555-------|
D|------------------------------------------------------------|
A|-8---------12-10-----10-8-------3---55555---2---33333-------|
D|-8-8-8-8-8-------8-8------8-8-8-3-3-------2-2-2-------------|
     . . . .       . .      . . .   .       .   .
x4

Tremolo riff:

e|----------------------|
B|----------------------|
G|----------------------|
D|----------------------|
A|---7-8-------7-5-4----|
D|-0-----8-5-7----------|
   t t t t t t t t t

x2

Bridge part:

e|------------------|
B|------------------|
G|------------------|
D|--7---5----8---7--|
A|--8---7---10---8--|
D|------------------|

Upbeat rock riff:

e|--------------------------------------|
B|--------------------------------------|
G|--7-7-7-7-7-7-7-7---------------------|
D|--7-7-7-7-7-7-7-7--------5------------|
A|--5-5-5-5-5-5-5-5--5-7-8---8-7-5------|
D|--------------------------------------|
      . .   . .   .

e|--------------------------------------|
B|--------------------------------------|
G|--5-5-5-5-5-5-5-5---------------------|
D|--5-5-5-5-5-5-5-5--------5------------|
A|--3-3-3-3-3-3-3-3--5-7-8---8-7-5------|
D|--------------------------------------|
      . .   . .   .

e|--------------------------------------|
B|--------------------------------------|
G|--3-3-3-3-3-3-3-3---------------------|
D|--3-3-3-3-3-3-3-3--------5------------|
A|--1-1-1-1-1-1-1-1--5-7-8---8-7-5------|
D|--------------------------------------|
      . .   . .   .

e|--------------------------------------|
B|--------------------------------------|
G|--5-5-5-5-5-5-5-5-6-------------------|
D|--5-5-5-5-5-5-5-5-6-------------------|
A|--3-3-3-3-3-3-3-3-4-------------------|
D|--------------------------------------|
      . .   . .   .

Next Part of Rock Riff:


e|--------------------------------------|
B|--------------------------------------|
G|--7-7-7-7-7-7-7-7---------------------|
D|--7-7-7-7-7-7-7-7--------5------------|
A|--5-5-5-5-5-5-5-5--5-7-8---8-7-5-0----|
D|--------------------------------------|
      . .   . .   .

e|--------------------------------------|
B|--------------------------------------|
G|--5-5-5-5-5-5-5-5---------------------|
D|--5-5-5-5-5-5-5-5--------5------------|
A|--3-3-3-3-3-3-3-3--5-7-8---8-7-5-0----|
D|--------------------------------------|
      . .   . .   .

e|--------------------------------------|
B|--------------------------------------|
G|--3-3-3-3-3-3-3-3---------------------|
D|--3-3-3-3-3-3-3-3--------5------------|
A|--1-1-1-1-1-1-1-1--5-7-8---8-7-5-0----|
D|--------------------------------------|
      . .   . .   .

e|--------------------------------------|
B|--------------------------------------|
G|--------------------------------------|
D|--8-7---------------------------------|
A|------8-11-10-8-----------------------|
D|--------------------------------------|

x3

Last soloy part:

e|--------------------------------------|
B|--------------------------------------|
G|--7-7-7-7-7-7-7-7-----9-10-12-10-9-7--|
D|--7-7-7-7-7-7-7-7--12-----------------|
A|--5-5-5-5-5-5-5-5---------------------|
D|--------------------------------------|
      . .   . .   .

e|----------------------------------------------|
B|----------------------------------------------|
G|--9-10-12-14-12-10-9--10----9--9--9-10-10-10--|
D|----------15-14-12-10-12---12-12-12-12-12-12--|
A|----------------------------------------------|
D|----------------------------------------------|
use vibrato on the solo part, it sounds really effective

Breakdown (really easy):

e|--------------------------------------|
B|--------------------------------------|
G|--------------------------------------|
D|--------------------------------------|
A|-------------8-10-12-13-12-10-8-------|
D|-0-0-0--------------------------------|
   . . .     

e|------------------------------------------|
B|-----------11--12-------------------------|
G|-----------14--15-------------------------|
D|------------------------------------------|
A|--------------------5h8 5h8 --8h11-8h11---|
D|-0--0-0--0---0----0---------0-------------|
   .  . .  .   .    .         .  

x2

then:

e|---------------------------------------------|
B|---------------------------------------------|
G|---------------------------------------------|
D|---------------------------------------------|
A|---------------------------------------------|
D|-0-0-0-------------------0--0-0--0-----------|
   . . .                   .  . .  .


e|----------------------------------------------------------------------|
B|----------------------------------------------------------------------|
G|----------------------------------------------------------------------|
D|----------------------------------------------------------------------|
A|-----------------------------------------5h8-5h8-----8h11-8h11--------|
D|-0-0-0-------------------0--0-0--0-----0-----------0------------------|
   . . .                   .  . .  .     .           .

the 4 tab lines above are put together and played 3 times

then:


e|------------------|
B|------------------|
G|------------------|
D|--8-7-5-------7---|
A|--------8-5-4-----|
D|------------------|


now second bridge:


e|---------------------------------------------|
B|---------------------------------------------|
G|---------------------------------------------|
D|----------7---5-7-8--------------------------|
A|-8---8-10-------------10-8-7---8-7-5-4-------|
D|---------------------------------------------|
  

e|--------------------------------------------------|
B|--------------------------------------------------|
G|--------------------------------------------------|
D|--7---10h12-10h12-10-8-7--7-8-10----12-10---------|
A|-----------------------------------------12-10----|
D|--------------------------------------------------|

and last breakdown:


e|---------------------------------------------|
B|---------------------------------------------|
G|---------------------------------------------|
D|---------------------------------------------|
A|---------------------------------------------|
D|-0-0-0-000000-0-0-0--------------------------|
   . . . ...... . . .
x1
_________________________________________________________________


e|---------------------------------------------|
B|----------------------9\\-4-//10-------------|
G|----------------------12\\7//13--------------|
D|---------------------------------------------|
A|---------------------------------------------|
D|-0-0-0-000000-0-0-0--------------------------|
   . . . ...... . . .


e|---------------------------------------------|
B|----------------------4-4-4------------------|
G|---------------------7-7-7-7-----------------|
D|---------------------------------------------|
A|---------------------------------------------|
D|-0-0-0-000000-0-0-0--------------------------|
   . . . ...... . . .   

x 4    

Tremolo part :


e|---------------------------------------------|
B|---------------------------------------------|
G|-8po-10p0-11p0-10p0-11p0-10p0----------------|
D|---------------------------------------------|
A|---------------------------------------------|
D|---------------------------------------------|
all of this part must be tremolo picked x 8

Then breakdown rhytm:


e|---------------------------------------------|
B|---------------------------------------------|
G|---------------------------------------------|
D|---------------------------------------------|
A|---------------------------------------------|
D|-0-0-0-000000-0-0-0--------------------------|
   . . . ...... . . .       

x 4

Spazz chord bit:


e|---------------------------------------------|
B|---------------------------------------------|
G|---------------------------------------------|
D|---------------------------------------------|
A|---------------------------------------------|
D|-000-000-----------------------------000-000-|
   ... ...                             ... ...  


e|---------------------------------------------|
B|--14---14------14---14----14---14------------|
G|--17---17------17---17----17---17------------|
D|---------------------------------------------|
A|---------------------------------------------|
D|-----0-------0----0-----0----0---------------|

cba to do the rhythm but iit end on this note:


e|------------|
B|-16---------|
G|-19---------|
D|------------|
A|------------|
D|------------|

if you have any more requests for this song please add my msn: birdy-1993@hotmail.co.uk
or add my myspace: myspace.com/birdy1993


cheerrs
rep thfiw
xx   
Tap to rate this tab
# A B C D E F G H I J K L M N O P Q R S T U V W X Y Z