Song name
# A B C D E F G H I J K L M N O P Q R S T U V W X Y Z

The Hush Sound - Echo tab

Echo By The Hush Sound

Standard Tuning
Fingerpicked, 1 guitar + Piano
Both guitars follow the same tab

Chords used are: E, A, D, F# (easier to play)

D - Strum downwards
U - Stum Upwards
    
e|--2-----0---------0----0---------|
B|----2------2---2-----2----0---2--|
G|---2-2-------2------2-2-----1----|
D|--4-----2---2-2---2----2---2-2---|   Play 4 times
A|-----------0---0----------0---0--|   (End with E Chord after 4th)
E|---------------------------------|


   D D U  U D D U  U D D U  U D D U  U
e|-0-0-0--0--0-0-0--0--0-0-0--0--0-0-0--0-|
B|-2-2-2--2--2-2-2--2--2-2-2--2--2-2-2--2-|
G|-2-2-2--2--2-2-2--2--2-2-2--2--2-2-2--2-| Same Stoke Pattern For Chorus
D|-2-2-2--2--2-2-2--2--2-2-2--2--2-2-2--2-| 
A|-0-0-0--0--0-0-0--0--0-0-0--0--0-0-0--0-|  A Chord
E|----------------------------------------|

e|-0-0-0--0--0-0-0--0--0-0-0--0--0-0-0--0-|
B|-0-0-0--0--0-0-0--0--0-0-0--0--0-0-0--0-|
G|-1-1-1--1--1-1-1--1--1-1-1--1--1-1-1--1-| 
D|-2-2-2--2--2-2-2--2--2-2-2--2--2-2-2--2-| 
A|-2-2-2--2--2-2-2--2--2-2-2--2--2-2-2--2-|  E Chord
E|-0-0-0--0--0-0-0--0--0-0-0--0--0-0-0--0-|

e|-2-2-2--2--2-2-2--2--2-2-2--2--2-2-2--2-|
B|-3-3-3--3--3-3-3--3--3-3-3--3--3-3-3--3-|
G|-2-2-2--2--2-2-2--2--2-2-2--2--2-2-2--2-| 
D|-0-0-0--0--0-0-0--0--0-0-0--0--0-0-0--0-|  D Chord
A|----------------------------------------|
E|----------------------------------------|

  Then:

   D D D D  D D D 
e|-0-0-0-0--0-0-0-0-|
B|-2-2-2-2--0-0-0-0-|
G|-2-2-2-2--1-1-1-1-|
D|-2-2-2-2--2-2-2-2-|
A|-0-0-0-0--2-2-2-2-|
E|----------0-0-0-0-|


e|--2-----0---------0----0---------|
B|----2------2---2-----2----0---2--|
G|---2-2-------2------2-2-----1----|
D|--4-----2---2-2---2----2---2-2---|   Play 4 times
A|-----------0---0----------0---0--|   (End with E Chord after 4th)
E|---------------------------------|


   
e|-0-0-0--0--0-0-0--0--0-0-0--0--0-0-0--0-|
B|-2-2-2--2--2-2-2--2--2-2-2--2--2-2-2--2-|
G|-2-2-2--2--2-2-2--2--2-2-2--2--2-2-2--2-| 
D|-2-2-2--2--2-2-2--2--2-2-2--2--2-2-2--2-| 
A|-0-0-0--0--0-0-0--0--0-0-0--0--0-0-0--0-|  A Chord
E|----------------------------------------|

e|-0-0-0--0--0-0-0--0--0-0-0--0--0-0-0--0-|
B|-0-0-0--0--0-0-0--0--0-0-0--0--0-0-0--0-|
G|-1-1-1--1--1-1-1--1--1-1-1--1--1-1-1--1-| 
D|-2-2-2--2--2-2-2--2--2-2-2--2--2-2-2--2-| 
A|-2-2-2--2--2-2-2--2--2-2-2--2--2-2-2--2-|  E Chord
E|-0-0-0--0--0-0-0--0--0-0-0--0--0-0-0--0-|

e|-2-2-2--2--2-2-2--2--2-2-2--2--2-2-2--2-|
B|-3-3-3--3--3-3-3--3--3-3-3--3--3-3-3--3-|
G|-2-2-2--2--2-2-2--2--2-2-2--2--2-2-2--2-| 
D|-0-0-0--0--0-0-0--0--0-0-0--0--0-0-0--0-|  D Chord
A|----------------------------------------|
E|----------------------------------------|

  
e|-0-0-0-0--0-0-0-0-|
B|-2-2-2-2--0-0-0-0-|
G|-2-2-2-2--1-1-1-1-|
D|-2-2-2-2--2-2-2-2-|
A|-0-0-0-0--2-2-2-2-|
E|----------0-0-0-0-|


Piano Solo


Electric Guitar:
e|------------------------------------------------------------|
B|------------------------------------------------------------|
G|------------------------------------------------------------| 4 Times
D|-----7-6-----------7-6-----------7-6-----------7-6----676---| through
A|-------------------------------55----55-5-5-----------------|
E|-55-5----55-5-5--00----00-0-0----------------55----00-------|

End Chords

e|-------------3-|
B|-------------3-|
G|-------------4-|
D|--5-5---2-2--5-|
A|--5-5---2-2--5-|
E|--3-3---0-0--3-|



Its Freakin' accurate so if you have questions or comments email me.
Tap to rate this tab
# A B C D E F G H I J K L M N O P Q R S T U V W X Y Z