Song name
# A B C D E F G H I J K L M N O P Q R S T U V W X Y Z

The Hush Sound - Molasses tab

i think its 99% correct:] rate please

e|--5-3-5-1----5-3-5-3-1-----------1-1-----3-3-3-3b--------|
B|----------3------------3-1-1-3-1-----3-1-----------------|
G|---------------------------------------------------------|
D|---------------------------------------------------------|
A|---------------------------------------------------------|
E|---------------------------------------------------------|

e|---5-3-5-1----5-3-5-3-1----1-1-2-3-3-4-5-7-9-10----------|
B|-----------3------------3--------------------------------|
G|---------------------------------------------------------|
D|---------------------------------------------------------|
A|---------------------------------------------------------|
E|---------------------------------------------------------|

Tap to rate this tab
# A B C D E F G H I J K L M N O P Q R S T U V W X Y Z