Guitaretab - guitar tabs
Song name
# A B C D E F G H I J K L M N O P Q R S T U V W X Y Z

The Hush Sound - Eileen tab

ill be adding more soon, but this is what i have so far.
the begining is kinda difficult, well, to play at a nice speed it is, but in time youll 
it. =D
hope you enjoi!
=]

[ Tab from: http://www.guitaretab.com/t/the-hush-sound/181122.html ]
e|-------------------------------------------0----4---0---5---4--4---4-------|
B|--------------------------------------2------2-----------------------------|
G|---------------------------1---2--1-----2----------------------------------|
D|-------------------2---------2---------------------------------------------|
A|----------------4------4---------------------------------------------------|
E|-9--4--0--5--4----5--------------------------------------------------------|


e|---------------------------------------------------------------------------|
B|----------10---------------------10------------------10-----------10-------|
G|--------9-----9-----------------9-----9--------------9---9-------9----9----|
D|-----11---------11----------11--------11---------11-----11----11------11---|
A|--12---------------------12-------------------9--------------9-------------|
E|---------------------------------------------------------------------------|
(repeat this part twice)
Related for Eileen tab
Advertisement will be closed in 10 seconds