Song name
# A B C D E F G H I J K L M N O P Q R S T U V W X Y Z

The Hush Sound - Dont Wake Me Up chords

Highlighted       Show chord diagrams
Love this song. I learn by ear, it's hopefully reliable enough. ;) Though the directions 
may be a bit confusing (my mind's a mess on paper), I wish you the best of luck with 
this awesome piece.

Tuning: Standard, CAPO 3
(Numerals are the actual frets, NOT distance from the capo. I.E. '3' is an open)
HOWEVER. Chords will be written with respect to the capo, for simplicity's sake, but the 
tablature will show the actual fret positions.

Intro/Verse (You came to me)

    Funky F   Funky G     Am     Em7   [E7] (Grace note preceding chorus)
e|--3-------------3---------3-------3------3-----------------------|
B|--4-------------6---------4-------3------3-----------------------|
G|--5-------------7---------5-------3------4-----------------------|
D|--6-------------8---------5-------3------3-----------------------|
A|--6-------------8---------3-------5------5-----------------------|
E|--3-------------x---------x-------3------3-----------------------|

Chorus I: (The light had slipped through the window) Strum loud and proud!

      F7     E7     Am x2
e|----4-------3------3--------------------------------------------------|
B|----4-------3------4--------------------------------------------------|
G|----5-------4------5--------------------------------------------------|
D|----4-------3------5--------------------------------------------------|
A|----6-------5------3--------------------------------------------------|
E|----4-------3------x--------------------------------------------------|

Chorus II: (Don't wake me up)

     Dm   Am   G    F     F7(Alternates with F between lines) Am (chorus end, replaces F)
e|---4----3----6----4------4-----------------------------------3------|
B|---6----4----3----6------4-----------------------------------4------|
G|---5----5----3----6------5-----------------------------------5------|
D|---3----5----3----5------4-----------------------------------5------|
A|---3----3----5----4------6-----------------------------------3------|
E|---x----x----6----4------4-----------------------------------x------|

 (I looked in the dark)


Bridge: (Oh you were a fire caught in a storm) C Em F x2

   (C     Em    F)  (x3)   E7 (Replaces Em on fourth measure)
e|--3-----3-----4----------3------------------------------|
B|--4-----3-----4----------3------------------------------|
G|--3-----3-----5----------4------------------------------|
D|--5-----5-----6----------3------------------------------|
A|--6-----5-----6----------5------------------------------|
E|--x-----3-----4----------3------------------------------|



Outro:
Dm Am Em Am

Have fun!
Tap to rate this tab
# A B C D E F G H I J K L M N O P Q R S T U V W X Y Z