Song name
# A B C D E F G H I J K L M N O P Q R S T U V W X Y Z

The Icarus Account - Only One tab

**Not many people know them but I saw them live... 
In a Parking lot literally 2 Feet away and they were Amazing! 
So I decided to tab out one of their songs so here it goes... 
Oh and there is 2 guitars in the song but I only tabbed out 1st guitar.

NOTE:
All "11" are 11s NOT 1s

Intro/Pre-Verse
e|-xx-xx-xx-xx-|
B|-xx-xx-xx-xx-|
G|-xx-xx-xx-xx-|(Up-Down strum pattern)
D|-xx-xx-xx-xx-|
A|-xx-xx-xx-xx-|
E|-xx-xx-xx-xx-|

Verse#1                                      (11's not 1's*Bare your pinky)
|----------------------------------------------11111111----------11111111-|
|----------------------------------------------11111111----------11111111-|
|-4-4-4-4--4-4-4-4--4-4-4-4--4-4-4-4--8-8-8-8--8-8-8-8--8-8-8-8--8-8-8-8--|
|-4-4-4-4--4-4-4-4--4-4-4-4--4-4-4-4--9-9-9-9--9-9-9-9--9-9-9-9--9-9-9-9--| 
|-x-x-x-x--x-x-x-x--x-x-x-x--x-x-x-x--7-7-7-7--7-7-7-7--x-x-x-x--x-x-x-x--|
|-4-4-4-4--4-4-4-4--3-3-3-3--3-3-3-3--------------------7-7-7-7--7-7-7-7--|
"I take my first breath then steps one and two
 Forget the small talk girl Im needing you 
 Cause its the first time
 Ive ever felt alive before in all my life"

|-x---x---xx--------------------------------11111111---x--11111111-------|
|-x---x---xx--------------------------------11111111---x--11111111-------|
|-x-4-x-4-xx-4--4-4-4-4--4-4-4-4---8-8-8-8--8-8-8-8---8x--8-8-8-8--------|
|-x-4-x-4-xx-4--4-4-4-4--4-4-4-4---9-9-9-9--9-9-9-9---9x--9-9-9-9--------|
|-x-x-x-x-xx----x-x-x-x--x-x-x-x---7-7-7-7--7-7-7-7---xx--x-x-x-x--------|
|-x-4-x-4-xx-4--3-3-3-3--3-3-3-3----------------------7x--7-7-7-7--------|
"You make my heart go crazy skipping beats
 And oh you look so good its killing me
 And light the fire and fuel the flame
 Without you girl Im not the same"


Pre-Chorus
|---x------x-----x---1111x---x---1111x--|
|-44x------x-----x---1111x---x---1111x--|
|-44x----66x----8x---8-8x---8x---8-8x--|
|-xxx----44x----9x---9-9x---9x---9-9x--|
|-44x----66x----7x---7-7x---xx---x-xx--|
|---x------x-----x------x---7x---7-7x--|
"So Ill take every breath and take it slow"


Chorus
|----------11111111----------11111111-----------11111111-----------------|
|----------11111111----------11111111-----------11111111-----------------|
|-8-8-8-8--8-8-8-8--8-8-8-8--8-8-8-8---8-8-8-8--8-8-8-8---8-8-8-8--------|2x
|-9-9-9-9--9-9-9-9--9-9-9-9--9-9-9-9---9-9-9-9--9-9-9-9---9-9-9-9--44-44-|
|-7-7-7-7--7-7-7-7--x-x-x-x--x-x-x-x---7-7-7-7--7-7-7-7---x-x-x-x--22-22-|
|-------------------7-7-7-7--7-7-7-7----------------------7-7-7-7--44-44-|
"Will You be my only one
 Will you be my only one
 Will you be my only"

(Second time end on)
|-1111--1111--|
|-1111--1111--|
|-8-8---8-8---|
|-9-9---9-9---|
|-x-x---x-x---|
|-7-7---7-7---|
one


Verse#2
|-----------------------1111------1111--|
|-----------------------1111------1111--|
|-4-4-4-4--4-4-4-4--8-8-8-8--8-8--8-8---|
|-4-4-4-4--4-4-4-4--9-9-9-9--9-9--9-9---|
|-x-x-x-x--x-x-x-x--7-7-7-7--x-x--x-x---|
|-4-4-4-4--3-3-3-3-----------7-7--7-7---|
"Ba ba ba ba do do do
 Ba ba ba ba do do do"

|-x---x---xx--------------------------------11111111---x--11111111-------|
|-x---x---xx--------------------------------11111111---x--11111111-------|
|-x-4-x-4-xx-4--4-4-4-4--4-4-4-4---8-8-8-8--8-8-8-8---8x--8-8-8-8--------|
|-x-4-x-4-xx-4--4-4-4-4--4-4-4-4---9-9-9-9--9-9-9-9---9x--9-9-9-9--------|
|-x-x-x-x-xx----x-x-x-x--x-x-x-x---7-7-7-7--7-7-7-7---xx--x-x-x-x--------|
|-x-4-x-4-xx-4--3-3-3-3--3-3-3-3----------------------7x--7-7-7-7--------|
"take the fall and take it hard
 Its safe to say youve won my heart
 All you are is all I need
 So take my hand and come with me love"


Pre-Chorus(ending is different but I play it the same way)
|---x------x-----x---1111x---x---1111x--|
|-44x------x-----x---1111x---x---1111x--|
|-44x----66x----8x---8-8x---8x---8-8x--|
|-xxx----44x----9x---9-9x---9x---9-9x--|
|-44x----66x----7x---7-7x---xx---x-xx--|
|---x------x-----x------x---7x---7-7x--|
"So Ill take every breath and take it slow "


Chorus
|----------11111111----------11111111-----------11111111-----------------|
|----------11111111----------11111111-----------11111111-----------------|
|-8-8-8-8--8-8-8-8--8-8-8-8--8-8-8-8---8-8-8-8--8-8-8-8---8-8-8-8--------|2x
|-9-9-9-9--9-9-9-9--9-9-9-9--9-9-9-9---9-9-9-9--9-9-9-9---9-9-9-9--44-44-|
|-7-7-7-7--7-7-7-7--x-x-x-x--x-x-x-x---7-7-7-7--7-7-7-7---x-x-x-x--22-22-|
|-------------------7-7-7-7--7-7-7-7----------------------7-7-7-7--44-44-|
"Will You be my only one
 Will you be my only one
 Will you be my only"

(Second time end on)
|-1111--1111--|
|-1111--1111--|
|-8-8---8-8---|
|-9-9---9-9---|
|-x-x---x-x---|
|-7-7---7-7---|
"one"

Break(Down-Up Strumming)
|---------------------------|
|---------------------------|
|-44-44-44-44--44-44-44-44--|
|-44-44-44-44--44-44-44-44--|
|-xx-xx-xx-xx--xx-xx-xx-xx--|
|-44-44-44-44--33-33-33-33--|
"Ive gotta find a way to get to you
 Ive gotta find a way to get to you"

|----------11111111----------11111111-|
|----------11111111----------11111111-|
|-8-8-8-8--8-8-8-8--8-8-8-8--8-8-8-8--|
|-9-9-9-9--9-9-9-9--9-9-9-9--9-9-9-9--|
|-7-7-7-7--7-7-7-7--x-x-x-x--x-x-x-x--|
|-------------------7-7-7-7--7-7-7-7--|
"You are the only one for me you are the only one"

|--------------------------------------------------11111111-|
|--------------------------------------------------11111111-|
|-4-4-4-4-4-4-4444--4-4-4-4-4-4-4444--8-8-8-8-8-8--8-8-8-8--|
|-4-4-4-4-4-4-4444--4-4-4-4-4-4-4444--9-9-9-9-9-9--9-9-9-9--|
|-x-x-x-x-x-x-xxxx--x-x-x-x-x-x-xxxx--7-7-7-7-7-7--7-7-7-7--|
|-4-4-4-4-4-4-4444--3-3-3-3-3-3-3333------------------------|
"And if I cant have you then I will have no one at all. No one"

|------1111-|
|------1111-|
|-8-8--8-8--|
|-9-9--9-9--|2x
|-7-7--7-7--|
|-----------|
"At all"


(First chorus after break is played differently but I wasnt quite sure 
so I just play it the same way)

Chorus:
|----------11111111----------11111111-----------11111111-----------------|
|----------11111111----------11111111-----------11111111-----------------|
|-8-8-8-8--8-8-8-8--8-8-8-8--8-8-8-8---8-8-8-8--8-8-8-8---8-8-8-8--------|2x
|-9-9-9-9--9-9-9-9--9-9-9-9--9-9-9-9---9-9-9-9--9-9-9-9---9-9-9-9--44-44-|
|-7-7-7-7--7-7-7-7--x-x-x-x--x-x-x-x---7-7-7-7--7-7-7-7---x-x-x-x--22-22-|
|-------------------7-7-7-7--7-7-7-7----------------------7-7-7-7--44-44-|
"Will You be my only one
 Will you be my only one
 Will you be my only one"

Outro:
(Second time end on)
|---------------1111--------------1111-----------------|
|---------------1111--------------1111-----------------|
|-8-8-8-8-8-8-8-8-8---8-8-8-8-8-8-8-8------------------|
|-9-9-9-9-9-9-9-9-9---9-9-9-9-9-9-9-9------------------|
|-7-7-7-7-7-7-7-7-7---x-x-x-x-x-x-x-x------------------|
|---------------------7-7-7-7-7-7-7-7------------------|


|---------------1111--------------------------------|
|---------------1111--------------------------------|
|-8-8-8-8-8-8-8-8-8---x8-x8-x8-x8-------------------|
|-9-9-9-9-9-9-9-9-9---x9-x9-x9-x9-------------------|
|-7-7-7-7-7-7-7-7-7---xx-xx-xx-xx-------------------|
|---------------------x7-x7-x7-x7-------------------|
Yeah Yeah Yeah Yeah

|---------------1111--------------1111-----------------|
|---------------1111--------------1111-----------------|
|-8-8-8-8-8-8-8-8-8---8-8-8-8-8-8-8-8------------------|
|-9-9-9-9-9-9-9-9-9---9-9-9-9-9-9-9-9------------------|
|-7-7-7-7-7-7-7-7-7---x-x-x-x-x-x-x-x------------------|
|---------------------7-7-7-7-7-7-7-7------------------|
If I cant have you then I will have no one at all

|---------------1111--|
|---------------1111--|
|-8-8-8-8-8-8-8-8-8---|
|-9-9-9-9-9-9-9-9-9---|
|-7-7-7-7-7-7-7-7-7---|
|---------------------|
No one at all

(Rythum not acurate on this part)
|------1111-|
|------1111-|
|-8-8--8-8--|2x
|-9-9--9-9--|
|-7-7--7-7--|
|-----------|

(end on)
|---|
|---|
|-8-|
|-9-|
|-7-|
|---|
Tap to rate this tab
# A B C D E F G H I J K L M N O P Q R S T U V W X Y Z