Song name
# A B C D E F G H I J K L M N O P Q R S T U V W X Y Z

The Inkspots - Into Each Life Some Rain Must Fall chords

Highlighted       Show chord diagrams
Into Each Life Some Rain Must Fall
The Inkspots (1944)

C7sus2:  x3533x
C7add#5: x35354

e|-----------10--9-8-----12--10-|-----------10------------------|
B|--------10----------10--------|--------11---------10-13-------|
G|-----10-----------------------|-----12------------------------|
D|-10---------------------------|-12------------12--------10-12-|
A|------------------------------|-------------------------------|
E|------------------------------|-------------------------------|

e|------------------------------|----------10-----------|
B|------------------------------|-------11----10-13-----|
G|-10-----------10h11----11-----|----10-----------------|
D|--------10h12-------10-----11-|-12----------------10--|
A|-----12-----------------------|-----------------------|
E|------------------------------|-----------------------|

F6                  F6
Into each life some rain must fall
    F6                     Gm    C7 C7sus2
But too much is falling in mine.
Gm                   Gm
Into each heart some tears must fall,
    C7               C7add#5 F Gbdim Gm C7
But some day the sun will    shine.

A7
Some folks can lose
    Am
The blues in their hearts,
    G7
But when I think of you,
               C7
Another shower starts.

F6                  F6        D7
Into each life some rain must fall,
    Gm                     F
But too much is falling in mine.

Bb                  Bb
Into each life some rain must fall
    Bb                               Cm   F7
But too much, too much is falling in mine.
Cm7                  Cm7
Into each heart some tears must fall,
    Cm7              C7   Bb Bdim Cm F7
But some day the sun will shine.

D7
Some folks can lose
    Dm
The blues in their hearts,
    C7
But when I think of you,
               F7
Another shower starts.
Bb                  Bb        G7
Into each life some rain must fall,
    Cm                     Bb Bdim Cm F7
But too much is falling in mine.


[Spoken]
Bb                     Bb
Into each and every life some rain has got to fall
Bb                             Cm          F7
But too much of that stuff has fallen into mine
Cm7                Cm7
And into each heart some tears gotta fall
Cm7                                    Bb Bdim Cm F7
But I know that someday that sun is bound to shine


[Sung]
D7
Some folks can lose
    Dm
The blues in their hearts,
    C7
But when I think of you,
               F7
Another shower starts.
Bb                  Bb        G7
Into each life some rain must fall,
    Cm                     Bb Bb Eb7 Bb
But too much is falling in mine.
Tap to rate this tab
# A B C D E F G H I J K L M N O P Q R S T U V W X Y Z