The Jam - No One In The World tab

I've put this tab up for all The Jam fans who have searched high and low for this song. 
I'm pretty sure it's accurate. Enjoy.

Standard Tuning (EADGBE)

G = E|-3-   A = E|-5-|
    B|-3-       B|-5-|
    G|-4-       G|-6-|
    D|-5-       D|-7-|
    A|-5-       A|-7-|
    E|-3-       E|-5-|

No One In The World by The Jam

E|----10-------------------------10---------9---------------------------------------------|
B|----12---12----------------12------------10--10------------------10---------------------|
G|----12-------12---12--12-----------------11------11--11--11--12-------------------------|
D|----------------------------------------------------------------------------------------|
A|----------------------------------------------------------------------------------------|
E|----------------------------------------------------------------------------------------|
     Come  down,        your tea is on the ta--ble.
   Re-mem--ber         when life was       lo-vely

E|----10-----------------------------10----9----------------------------------------------|
B|----12--12-----------------12-----------10----10------------------10--------------------|
G|----12-------12---12--12----------------11--------11--11--11--12------------------------|
D|----------------------------------------------------------------------------------------|
A|----------------------------------------------------------------------------------------|
E|----------------------------------------------------------------------------------------|
      No--thing      seems to matter any---more
  Forever               was captured in your smile

    G                    A                 G                   A
and if you're good we'll go out on Sunday. Spend the whole day thinking of you.
    We were young and    life was hopeful. No-one threatened   our existence

E|---7----------7--------7---------7-------------------0---2------------------------------|
B|---7----------7--------7---------7---3---3--3--3--3------2------------------------------|
G|---7----------7--------7---------7---4---4--4--4---------2-----2--4--4-4-5-7------------|
D|-9----------8--------7---------6-----5---5--5--5---------4------------------------------|
A|----------------------------------------------------------------------------------------|
E|----------------------------------------------------------------------------------------|
     Take you sailing across the water     to a far a--way place.
     We were laughing they couldn't stop us. No one in the World.



Hope this is OK. First tab tabbed so be kind. Please rate fairly!!!

Modfather75
Tap to rate this tab
 
# A B C D E F G H I J K L M N O P Q R S T U V W X Y Z