Song name
# A B C D E F G H I J K L M N O P Q R S T U V W X Y Z

The Jazz Crusaders - Put It Where You Want It tab

E--------------------11b12--8-------------------------6h8-|
B--11--11b--11b--11---------------------------------------|
G---------------------------------8--8b10--8b10--8--------|
D---------------------------------------------------------|
A---------------------------------------------------------|
E---------------------------------------------------------|

E---------------------11b12--8---------------------------|
B--11--11b--11b--11--------------------------------------|
G---------------------------------8--8b10--8b10--8--5----|
D--------------------------------------------------------|
A--------------------------------------------------------|
E--------------------------------------------------------|
Tap to rate this tab
 
# A B C D E F G H I J K L M N O P Q R S T U V W X Y Z