Song name
# A B C D E F G H I J K L M N O P Q R S T U V W X Y Z

The Knockouts - Feliz Navidad tab

Feliz Navidad by the knockouts!  The Stumming differs from the verse's and Chours, but 
listen to the song.  Also, I was very lazy, and didnt wanna tab any of the other verse 
parts.  Anyways, enjoy.

Intro
e|--------------------------------------------------------|
B|--------------------------------------------------------|
G|--7-------------------------------------7---------------|
D|--7----5-----7----5---2---5---9--5--7---7---------------|
A|--5----5-----7----5---2---5---9--5--7---5---------------|
E|-------3-----5----3---0---3---7--3--5-------------------|


Verse
e|----------------------------------------------------------------|
B|----------------------------------------------------------------|
G|-11--11--11----9---7------14-------9----7-----------------------|
D|-11--11--11----9---7------14-------9----7-----------------------|
A|-9---9---9-----7---5------12-------7----5--------------0-2-0-5--|
E|-------------------------------------------------0-2-4----------|

Chours
e|---------------------------------------------------------|
B|---------------------------------------------------------|
G|-------------------7-------------------------------------|
D|--5--7--5-9--5--7--7------Repeat ------------------------|
A|--5--7--5-9--5--7--5-------------------------------------|
E|--3--5--3-7--3--5----------------------------------------|

Verse 2
e|----------------------------------------------------------------|
B|----------------------------------------------------------------|
G|-11--11--11----9---7------14-------9----7-----------------------|
D|-11--11--11----9---7------14-------9----7-----------------------|
A|-9---9---9-----7---5------12-------7----5--------------0-2-0-5--|
E|-------------------------------------------------0-2-4----------|

Chours 2
e|---------------------------------------------------------|
B|---------------------------------------------------------|
G|-------------------7-------------------------------------|
D|--5--7--5-9--5--7--7------Repeat ------------------------|
A|--5--7--5-9--5--7--5-------------------------------------|
E|--3--5--3-7--3--5----------------------------------------|

Solo
e|---------------------------------------------------------|
B|---------------------------------------------------------|
G|---------------------------------------------------------|
D|---------------------------------------------------------|
A|-0--5-5-4-4--2-2-2-2-0---0-7-7-5-5--2-2-2-2--4-5---------|
E|---------------------------------------------------------|


e|---------------------------------------------------------|
B|---------------------------------------------------------|
G|---------------------------------------------------------|
D|---------------------------------------------------------|
A|-0-5-5-4-4-2-2-2-2-0--0----------------------------------|
E|------------------------0-2-4-5--------------------------|


e|---------------------------------------------------------|
B|---------------------------------------------------------|
G|---------------------------------------------------------|
D|-----------------0---------------------------------------|
A|-0---0---0---0---0---------------------------------------|
E|---0---0---0---0-----------------------------------------|


e|---------------------------------------------------------|
B|---------------------------------------------------------|
G|---------------------------------------------------------|
D|---------------------------------------------------------|
A|-0--5-5-4-4-2-2-2-2-0---0-7-7-5-5-2-2-2-4-5--------------|
E|---------------------------------------------------------|

e|---------------------------------------------------------|
B|-----------00000-2222222-3333333-3-----------------------|
G|---------------------------------------------------------|
D|---------------------------------------------------------|
A|-0-5-5-4-4-22222-4444444-55555555-5----------------------|
E|---------------------------------------------------------|

** For Guitars not playing Solo just strum:
e|---------------------------------------------------------|
B|---------------------------------------------------------|
G|--7------------------------------------------------------|
D|--7---------7------again and again-----------------------|
A|--5---------7--------------------------------------------|
E|------------5--------------------------------------------|


Bridge

I wanna wish you a merry Christmas, I wanna wish you a merry Christmas,
                   G                C
I wanna wish you a merry christmas, I wanna wish you a merry chirstmas,
D                         G                            Em
from the bottem of my heart.
D                      G

Last Chours
e|---------------------------------------------------------|
B|---------------------------------------------------------|
G|-------------------7-------------------------------------|
D|--5--7--5-9--5--7--7------Repeat ------------------------|
A|--5--7--5-9--5--7--5-------------------------------------|
E|--3--5--3-7--3--5----------------------------------------|

http://www.theknockouts.ca/
Tap to rate this tab
# A B C D E F G H I J K L M N O P Q R S T U V W X Y Z