Guitaretab - guitar tabs
Song name
# A B C D E F G H I J K L M N O P Q R S T U V W X Y Z

The Kooks - In Love tab

First part of the Album, I am going to figure out the rest of it when I get the time...

Tuning: Drop D (DADGBe)

For Comments on the tab, please mail me at ary_behn@hotmail.com

Intro / Verse 1
e|--------------------------------------------------------------------------|
B|--------------------------------------------------------------------------|
G|--------------------------------------------------------------------------|
D|--------------------------------------------------------2-------4---------|
A|--------------------------------------------------------2-------4---------|
D|--6-6-6-6-6-6-6-6--9-9-9-9-9-9-9-9-6-6-6-6-6-6-6-6--2-2---2-4-4---4-------|

e|--------------------------------------------------------------------------|
B|--------------------------------------------------------------------------|
G|---------------------------------------------------------6-------6--------|
D|----------------------------------------4-------4--------6-------6--------|
A|----------------------------------------4-------4----4-4---4-4-4---4------|
D|--6-6-6-6-6-6-6-6--9-9-9-9-9-9-9-9--4-4---4-4-4---4-----------------------|  

e|--------------------------------------------------------------------------|
B|--------------------------------------------------------------------------|
G|--------------------------------------------------------------------------|
D|--------------------------------------------------------2-------4---------|
A|--------------------------------------------------------2-------4---------|
D|--6-6-6-6-6-6-6-6--9-9-9-9-9-9-9-9-6-6-6-6-6-6-6-6--2-2---2-4-4---4-------|

e|--------------------------------------------------------------------------|
B|--------------------------------------------------------------------------|
G|---------------------------------------------------------6-------6--------|
D|----------------------------------------4-------4--------6-------6--------|
A|----------------------------------------4-------4----4-4---4-4-4---4------|
D|--6-6-6-6-6-6-6-6--9-9-9-9-9-9-9-9--4-4---4-4-4---4-----------------------|  

Pre Chorus
e|--------------------------------------------------------------------------|
B|--------------------------------------------------------------------------|
G|--12\13-13-12\13-13-12\13-12\13-13-12\13-13-12\13-13-12\13-13-12\13-13----|
D|--------------------------------------------------------------------------|
A|--------------------------------------------------------------------------|
D|--------------------------------------------------------------------------|

e|--------------------------------------------------------------------------|
B|--------------------------------------------------------------------------|
G|--15\16-16-15\16-15\16-15\16-15\16-15\16-15\16-16-15\16-------------------|
D|--------------------------------------------------------------------------|
A|--------------------------------------------------------------------------|
E|--------------------------------------------------------------------------|

e|--------------------------------------------------------------------------|
B|--------------------------------------------------------------------------|
G|--17\18-17\18-17\18-18-17\18-17\18-18-17\18-17\18-18-17\18-18-------------|
D|--------------------------------------------------------------------------|
A|--------------------------------------------------------------------------|
D|--------------------------------------------------------------------------|

Chorus
e|--------------------------------------------------------------------------|
B|----------------9---------------------------------------------------------|
G|---9~----9-11-------11-9--------------------------9--9-11/13\11-9---------|
D|-------------------------11-9-9-9-11-11--11-11-11-------------------------|
A|--------------------------------------------------------------------------|
E|--------------------------------------------------------------------------|

e|--------------------------------------------------------------------------|
B|------------------------------14-12---------------------------------------|
G|--9--11\13-13--11h13-13-13-13-------13-11-9-11h13p11\9------9-------------|
D|--------------------------------------------------------11----------------|
A|--------------------------------------------------------------------------|
E|--------------------------------------------------------------------------|
[ Tab from: http://www.guitaretab.com/t/the-kooks/143941.html ]
e|--------------------------------------------------------------------------|
B|--------------14-12-------------------------------------------------------|
G|--11-13-11-13-------13-11-9-9-11-9------------9----9--11-9----9----9----9-|
D|-----------------------------------11-9-9--11---11---------11---11---11---|
A|--------------------------------------------------------------------------|
E|--------------------------------------------------------------------------|

e|--------------------------------------------------------------------------|
B|--------------------------------------------------------------------------|
G|--11-9-----9-9----9-9-99-9------------------------------------------------|
D|--------11-----11----------11~~~--9~~-------------------------------------|
A|--------------------------------------------------------------------------|
E|--------------------------------------------------------------------------|
(not sure about the last part here eh..)

Verse 2
e|-------------------------------------------------|
B|-------------------------------------------------|
G|-------------------------------------------------|
D|-------------------------------2-------4---------|
A|-------------------------------2-------4---------|
D|--9-9-9-9-6-6-6-6-6-6-6-6--2-2---2-4-4---4-------|

e|--------------------------------------------------------------------------|
B|--------------------------------------------------------------------------|
G|---------------------------------------------------------6-------6--------|
D|----------------------------------------4-------4--------6-------6--------|
A|----------------------------------------4-------4----4-4---4-4-4---4------|
D|--6-6-6-6-6-6-6-6--9-9-9-9-9-9-9-9--4-4---4-4-4---4-----------------------|  

e|--------------------------------------------------------------------------|
B|--------------------------------------------------------------------------|
G|--16---16---16---16---16---16---16---16---16---16---16---16---16---16-----|
D|-----18---18---18---18---18---18---18--18---18---18---18---18---18----18--|
A|--------------------------------------------------------------------------|
D|--------------------------------------------------------------------------|
 
e|--------------------------------------------------------------------------|
B|--------------------------------------------------------------------------|
G|--16---16---16---16---16---16---16---16---16---16---16---16---16---16-----|
D|-----18---18---18---18---18---18---18--18---18---18---18---18---18----18--|
A|--------------------------------------------------------------------------|
D|--------------------------------------------------------------------------|

e|--------------------------------------------------------------------------|
B|--------------------------------------------------------------------------|
G|--16------------------------------------------------------------------------|
D|-----18-16-14-18-16-14----------------------------------------------------------------|
A|-----------------------16---------------------------------------------------|
D|--------------------------------------------------------------------------|

Pre Chorus
e|--------------------------------------------------------------------------|
B|--------------------------------------------------------------------------|
G|--12\13-13-12\13-13-12\13-12\13-13-12\13-13-12\13-13-12\13-13-12\13-13----|
D|--------------------------------------------------------------------------|
A|--------------------------------------------------------------------------|
D|--------------------------------------------------------------------------|

e|--------------------------------------------------------------------------|
B|--------------------------------------------------------------------------|
G|--15\16-16-15\16-15\16-15\16-15\16-15\16-15\16-16-15\16-------------------|
D|--------------------------------------------------------------------------|
A|--------------------------------------------------------------------------|
E|--------------------------------------------------------------------------|

e|--------------------------------------------------------------------------|
B|--------------------------------------------------------------------------|
G|--17\18-17\18-17\18-18-17\18-17\18-18-17\18-17\18-18-17\18-18-------------|
D|--------------------------------------------------------------------------|
A|--------------------------------------------------------------------------|
D|--------------------------------------------------------------------------|

more to come...
Related for In Love tab