Song name
# A B C D E F G H I J K L M N O P Q R S T U V W X Y Z

The Kooks - Rosie tab

E|---------------------------|
B|10--10-10--10--10--9-10-10-|
G|---------------------------|
D|---------------------------|
A|---------------------------|
E|---------------------------|


E|------------------------9----------------------10-9------------7--10--12-|
B|10--10-10--10--10--9-10---10-12----10-12----10------12--10--9---------12-|
G|--------------------------------11-------11---------------------------13-|
D|-------------------------------------------------------------------------|
A|-------------------------------------------------------------------------|
E|-------------------------------------------------------------------------|

not 100% right, though
well, its not the same instrument but you can play it similarly to Hugh ;)
Tap to rate this tab
 
# A B C D E F G H I J K L M N O P Q R S T U V W X Y Z