Song name
# A B C D E F G H I J K L M N O P Q R S T U V W X Y Z

The Kooks - Naive chords

Highlighted       Show chord diagrams
Chords Used: 
   G#m   E   E2   [ch]F#/D[/ch]  B   B2   D#7
e|--4----7----7----6----7----7----6-|
B|--4----9----7----6----7----7----7-|
G|--4----9----9----6----8----9----6-|
D|--6----9----9----8----9----8----8-|
A|--6----7----7----9----9----9----6-|
E|--4----7----7----6----7----7----6-|

After all these years you would have thought by now someone uploaded the 100% CORRECT chords that 
THE KOOKS actually play.....anyway since the new album is coming out later this year I got inspired 
to upload the correct version of one of their best singles.

For strumming pattern listen to the song and try to get a sense of the slightly off beat rhythmic 
muting strumming style they got going on.

Verse:

G#m                     E                                   [ch]F#/D[/ch]
I'm not saying its your fault, although you could have done more
          B    B2
Oh you're so naive yet so
G#m                 E                            [ch]F#/D[/ch]
How could this been done, by such a smiling sweetheart
    B                  B2
Ohh and your sweet and pretty face
G#m                    E                  [ch]F#/D[/ch]
In such an ugly world, something so beautiful.
         B            B2
Ohh that every time I look inside

Chorus:

E           B                  D#7
I know, she knows that i'm not fond of asking
E                     B                       D#7
True or false, it may be... Well, she's still out to get me
E           G#m                D#7 
I know, she knows that i'm not fond of asking
E                     B                 D#7
True or false, it may be... She's still out to get me!

Solo:

e|----------------------------------------------------|
B|----------------------------------------------------|
G|--4-4-4--6-6-6-6--8-8--9--9--9---16-16-16-16-16-16--|
D|--6-6-6--8-8-8-8--9-9--11-11-11--16-16-16-16-16-16--|
A|----------------------------------------------------|
E|----------------------------------------------------|

e|----------------------------------------------------|
B|----------------------------------------------------|
G|--4-4-4--6-6-6-6--8-8--9--9--9---11-11-11-11-11-9---|
D|--6-6-6--8-8-8-8--9-9--11-11-11--11-11-11-11-11-11--|
A|----------------------------------------------------|
E|----------------------------------------------------|

Bridge:

E       D#7    G#m           E2
                 Just don't let me down
E       D#7    G#m           E2
                 Just don't let me down
E       D#7    G#m           E2
Hold on to your kite, Just don't let me down

Continue to end of song ends on G#m. Hope you enjoy thanks.
Tap to rate this tab
# A B C D E F G H I J K L M N O P Q R S T U V W X Y Z