Guitaretab - guitar tabs
Song name
# A B C D E F G H I J K L M N O P Q R S T U V W X Y Z

The Kooks - She Moves In Her Own Way tab

Artist: The Kooks
Song: She Moves In Her Own Way

Tabbed by JackChappers

Here are the LEAD and SOLO sections for the song.

Any comments appreciated.

0:02
e-------7~------8~-8/10--------7~--------------------------------|
B------------------------------8~--------------------------------|
Gó5/7~----7/9~----9/11-------------------------------------------|
D----------------------------------------------------------------|
A----------------------------------------------------------------|
E----------------------------------------------------------------|

0:12
e-----7~---------------------------------------------------------|
B--8~------------------------------------------------------------|
G----------------------------------------------------------------|
D----------------------------------------------------------------|
A----------------------------------------------------------------|
E----------------------------------------------------------------|

0:23
e-------7-6/5-3~-------------------------------------------------|
B----------------------------------------------------------------|
G--5\7--7-6/5-4~-------------------------------------------------|
D----------------------------------------------------------------|
A----------------------------------------------------------------|
E----------------------------------------------------------------|

0:30
e----------------------------------------------------------------|
B----------(12)-Slowly descend onto fretboard until--12----------|
G------(12)---------------freely strumming-->>>>>----12----------|
D--(12)----------------------------------------------12----------|
A----------------------------------------------------------------|
E----------------------------------------------------------------|

0:51
e----------------------------------------------------------------|
B----------8~----------------------------------------------------|
G--7/9\7/9-------------------------------------------------------|
D----------------------------------------------------------------|
A----------------------------------------------------------------|
E----------------------------------------------------------------|

1:02
e---------------------15~----------------------------------------|
B--12/13-----------15----15~-------------------------------------|
G--12/14--16-14/16----------16~\---------------------------------|
D----------------------------------------------------------------|
A----------------------------------------------------------------|
E----------------------------------------------------------------|

1:07
e-------3--5--7--7---7--8--10--10------------15~-----------------|
B----------------------------------------------------------------|
G--4~---4--5--7~-----7--9--11~----12b14r12~----------------------|
D----------------------------------------------------------------|
A----------------------------------------------------------------|
E----------------------------------------------------------------|
[ Tab from: http://www.guitaretab.com/t/the-kooks/68539.html ]
1:16
e-15--Freely strum this arpeggio shape gradually getting louder--|
B-15-------------------------------------------------------------|
G-16-------------------------------------------------------------|
D----------------------------------------------------------------|
A----------------------------------------------------------------|
E----------------------------------------------------------------|

1:37
e----------------------------------------------------------------|
B----------------------------------------------------------------|
G----------------------------------------------------------------|
D--12/14\12/14---------------------------------------------------|
A----------------------------------------------------------------|
E----------------------------------------------------------------|

1:48  
e--7~----7~----7~----7~------------------------------------------|
B-----8~----8~----8~----8~---------------------------------------|
G----------------------------------------------------------------|
D----------------------------------------------------------------|
A----------------------------------------------------------------|
E----------------------------------------------------------------|

2:01
e--7~----7~----7~------------------------------------------------|
B-----8~----8~----8~---------------------------------------------|
G----------------------------------------------------------------|
D----------------------------------------------------------------|
A----------------------------------------------------------------|
E----------------------------------------------------------------|

2:04 (SOLO)
e----------------------3-5b7r5p3-5------------------------------->
B--------------3---3-5-------------3/--0--12b13r12-10-12--------->
G--------0-2/4---4---------------------------------------(12)-x-->
D--2p0h2--------------------------------------------------------->
A---------------------------------------------------------------->
E---------------------------------------------------------------->

SOLO Cont...
e-------------------10--15-17b19r17p15-17---12-10----8-7----8-7~----7~---|
B--------12--10/12-(12)---------------------13-12---10-8---10-8~--8-8~---|
G-9p7h9-(12)--------------------------------------------------------0~---|
D------------------------------------------------------------------------|
A------------------------------------------------------------------------|
E------------------------------------------------------------------------|

2:42
e----------------------------------------------------------------|
B----------------------------------------------------------------|
G--12\-----------------------------------------------------------|
D--12\-----------------------------------------------------------|
A----------------------------------------------------------------|
E----------------------------------------------------------------|

***********************************************
               /   =   Slide up
               \   =   Slide down
               ~   =   Let ring
              ()   =   Natural harmonic
               p   =   Pinched harmonic
               b   =   Bend
               r   =   Release bend
              br   =   Bend and Release
              bh   =   Bend and Hold
               p   =   Pull off
               h   =   Hammer on
               t   =   Tremolo
               x   =   Dead note
***********************************************
Related for She Moves In Her Own Way tab