Song name
# A B C D E F G H I J K L M N O P Q R S T U V W X Y Z

The Lacs - Field Party tab

This is the whole song
----------------------------------------|
----------------------------------------|
----------------------------------------|
--7-7-----------2-2----2-5-5------------|
--7-7----3-2----2-2----2H5-5------------|
--5-5-----------0-0----0-3-3------------|

----------------------------------------|
----------------------------------------|
----------------------------------------|
--5---5---5-----7-----------------------|
--5---5---5--/--7-----------------------|
--3-0-3-0-3-----5-----------------------|

have fun [><]
Tap to rate this tab
 
# A B C D E F G H I J K L M N O P Q R S T U V W X Y Z