Song name
# A B C D E F G H I J K L M N O P Q R S T U V W X Y Z

The Living End - One Step Behind tab

                                  ONE STEP BEHIND

/ = slide up
\ = slide down 
h = hammer on
p = pull off
b = half bend
^ =bend one fret
^^ = bend 2 frets
v = release bend
pm = palm mute
x = dead note



Intro: 
   A        C#m  Em   B    C#m
e--5--------4----7----7----4----|
b--5--------5----8----7----5----|
g--6--------6----9----8----6----|
d--7--------6----9----9----6----|
a--7--------4----7----9----4----|
e--5------------------7---------|



Verse 1: Slow delay effect used

e------------------------0---0------|
b--------5-4---------------2---2----|
g------6---------------1------------|
d----6---------------2--------------| Repeat as needed
a--4---------7-4-2-0----------------|
e-----------------------------------|



Pre Chorus 1: First time round, there's a swell/fade effect 
            being used. This is what he's playing though.
   F#m           G#m           A             B
e----------2--2----------4--4----------5--5----------7--7--|
b----------2--2----------4--4----------5--5----------7--7--|
g----------2--2----------4--4----------6--6----------8--8--|
d----------4--4----------6--6----------7--7----------9--9--|
a--4-4-4-4-4--4--6-6-6-6-6--6--7-7-7-7-7--7--9-9-9-9-9--9--|
e--2-2-2-2-2--2--4-4-4-4-4--4--5-5-5-5-5--5--7-7-7-7-7--7--|
   pm.....       .......       .......       .......

e----------2--2----------4--4----------5--5--7-7-7-7-7-7-7-7--|
b----------2--2----------4--4----------5--5--7-7-7-7-7-7-7-7--|
g----------2--2----------4--4----------6--6--8-8-8-8-8-8-8-8--|
d----------4--4----------6--6----------7--7--9-9-9-9-9-9-9-9--|
a--4-4-4-4-4--4--6-6-6-6-6--6--7-7-7-7-7--7--9-9-9-9-9-9-9-9--|
e--2-2-2-2-2--2--4-4-4-4-4--4--5-5-5-5-5--5--7-7-7-7-7-7-7-7--|
   pm.....       .......       .......       



Chorus:

e--0--------------------------------4--------------7-----------------|
b--2--------------------------------5--------------8-----------------|
g--2-2-2-2-2-2-2-2-2-2-2-2-2-2-2-2--6-6-6-6-6-6-6--9--9-9-9-9-9-9-9--|
d--2-2-2-2-2-2-2-2-2-2-2-2-2-2-2-2--6-6-6-6-6-6-6--9--9-9-9-9-9-9-9--|
a--0-0-0-0-0-0-0-0-0-0-0-0-0-0-0-0--4-4-4-4-4-4-4--7--7-7-7-7-7-7-7--|
e--------------------------------------------------------------------|


e------------------------------------------------4---2------|
b--------------------------2-2-2-5---4-----2-2-2-5---4------|
g--4---6---8--6---8---9----2-2-2-2-2-2-2-2-2-2-2-2-2-2-2-2--|
d--x---x---x--x---x---x----2-2-2-2-2-2-2-2-2-2-2-2-2-2-2-2--| All that x2
a--2---4---6--4---6---7----0-0-0-0-0-0-0-0-0-0-0-0-0-0-0-0--|
e-----------------------------------------------------------|



Verse 2:

e------------------------------|--------------------------------------------
b--4\--------------------------|--------------------------------------------
g--6\--------------------------|--------------------------------------------
d--6\----6-6-7-----------------|--6-6-6-6--------------------------(Repeat 
a--4\----6-6-7--7-7-7-7-7-7-7--|--4-4-4-4-6-6-6-7-7-7-7-7-7-7-7-7-----------
e--------4-4-5--5-5-5-5-5-5-5--|----------4-4-4-5-5-5-5-5-5-5-5-5-----------
                pm...........     ...............................



Pre Chorus 2:
e------2--2--2------4--4--4------5--5--5------7--7--7--|
b------2--2--2------4--4--4------5--5--5------7--7--7--|
g------2--2--2------4--4--4------6--6--6------8--8--8--|
d------4--4--4------6--6--6------7--7--7------9--9--9--|
a--4-4-4--4--4--6-6-6--6--6--7-7-7--7--7--9-9-9--9--9--|
e--2-2-2--2--2--4-4-4--4--4--5-5-5--5--5--7-7-7--7--7--|
   pm.          ...          ...          ...

e------2--2--2------4--4--4------5--5--5--7-7-7-7-7-7-7-7--|
b------2--2--2------4--4--4------5--5--5--7-7-7-7-7-7-7-7--|
g------2--2--2------4--4--4------6--6--6--8-8-8-8-8-8-8-8--|
d------4--4--4------6--6--6------7--7--7--9-9-9-9-9-9-9-9--|
a--4-4-4--4--4--6-6-6--6--6--7-7-7--7--7--9-9-9-9-9-9-9-9--|
e--2-2-2--2--2--4-4-4--4--4--5-5-5--5--5--7-7-7-7-7-7-7-7--|
   pm.          ...          ...       



Chorus


Pre Solo:

e--------4--6-----------------------|------------------------------------|
b--4\----4--5-----------------------|------------------------5-5-5-5-5\--|
g--6\----5--6-----------------------|--------------------6-6-6-6-6-6-6\--|
d--6\----6--7--7-7-7-7-7-7-7--(x3)--|--6-6-6-6-6-6-6-6-6-6-6-6-6-6-6-6\--|
a--4\----6--7--7-7-7-7-7-7-7--------|--4-4-4-4-4-4-4-4-4-4-4-4-4-4-4-4\--|
e--------4--5--5-5-5-5-5-5-5--------|------------------------------------|
                                       pm...............


Solo:

e------------------------------------------------------------------7-----6-----4------------------|
b-----2-2-2-2---4---2---4---5---2----5\4/5-------7/8\7-5-7^vp5-----------------------7-5~---------|
g--2--2-2-2-2-2-2-2-2-2-2-2-2-2-2-2--6\5/6-8^v-6-8/9\8-6-------8-4---4-4---4-4---4-4-------6---4--|
d--2--2-2-2-2-2-2-2-2-2-2-2-2-2-2-2----------------------------------------------------------6----|
a--0--0-0-0-0-0-0-0-0-0-0-0-0-0-0-0-----------------------------------------
e---------------------------------------------------------------------------


e------0-0-0-----------0-0-0-------|
b------2-2-2-4-4-------2-2-2-4-4\--|
g------2-2-2-4-4-------2-2-2-4-4\--|
d--2-2-2-2-2-2-2-2-2-2-2-2-2-2-2\--|
a--0-0-0-0-0-0-0-0-0-0-0-0-0-0-0---|
e----------------------------------|


Bridge: No guitar at the start, then eventually
        fades into the pre chorus.


Chorus 


Outro:


e--0--------------------------------4--------------7-----------------|
b--2--------------------------------5--------------8-----------------|
g--2-2-2-2-2-2-2-2-2-2-2-2-2-2-2-2--6-6-6-6-6-6-6--9--9-9-9-9-9-9-9--|
d--2-2-2-2-2-2-2-2-2-2-2-2-2-2-2-2--6-6-6-6-6-6-6--9--9-9-9-9-9-9-9--|
a--0-0-0-0-0-0-0-0-0-0-0-0-0-0-0-0--4-4-4-4-4-4-4--7--7-7-7-7-7-7-7--|
e--------------------------------------------------------------------|


e--------------------------|
b--------------------------|
g--4---6---8--6---8---9----|
d--x---x---x--x---x---x----| 
a--2---4---6--4---6---7----|
e--------------------------|


e--0--------------------------------4--------------7-----------------|
b--2--------------------------------5--------------8-----------------|
g--2-2-2-2-2-2-2-2-2-2-2-2-2-2-2-2--6-6-6-6-6-6-6--9--9-9-9-9-9-9-9--|
d--2-2-2-2-2-2-2-2-2-2-2-2-2-2-2-2--6-6-6-6-6-6-6--9--9-9-9-9-9-9-9--|
a--0-0-0-0-0-0-0-0-0-0-0-0-0-0-0-0--4-4-4-4-4-4-4--7--7-7-7-7-7-7-7--|
e--------------------------------------------------------------------|


e------------------------------------------------4---2------|
b--------------------------2-2-2-5---4-----2-2-2-5---4------|
g--4---6---8--6---8---9----2-2-2-2-2-2-2-2-2-2-2-2-2-2-2-2--|
d--x---x---x--x---x---x----2-2-2-2-2-2-2-2-2-2-2-2-2-2-2-2--| 
a--2---4---6--4---6---7----0-0-0-0-0-0-0-0-0-0-0-0-0-0-0-0--|
e-----------------------------------------------------------|


e------------------------4---2------------|--4\----|
b--2-2-2-5---4-----2-2-2-5---4------------|--5\----|
g--2-2-2-2-2-2-2-2-2-2-2-2-2-2-2-2--------|--6\----|
d--2-2-2-2-2-2-2-2-2-2-2-2-2-2-2-2--(x4)--|--6\----|
a--0-0-0-0-0-0-0-0-0-0-0-0-0-0-0-0--------|--4\----|
e-----------------------------------------|--------|
Tap to rate this tab
# A B C D E F G H I J K L M N O P Q R S T U V W X Y Z