Song name
# A B C D E F G H I J K L M N O P Q R S T U V W X Y Z

The Living End - Nothing Lasts Forever tab

                             NOTHING LASTS FOREVER


/= slide up
\= slide down
p= pull off
h= hammer on
b= half bend
^= full bend
^^= bend 2 frets
v= bring bend down
pm= palm mute
~= vibrado


The Lead bits during the intro and the chorus are done on a lapsteel guitar.
But a slide works just as well. There's a delay effect on there as well.


Intro: 

Rythym
e--3-------------------------------2----------------------------------|
b--3-----3-----3---3-----3-----3---3-----3-----3---3-----3-----3------|
g--0-0-0-0-0-0-0-0-0-0-0-0-0-0-0-0-0-0-0-0-0-0-0-0-0-0-0-0-0-0-0-0----|
d--5-5-5-5-5-5-5-5-5-5-5-5-5-5-5-5-5-5-5-5-5-5-5-5-5-5-5-5-5-5-5-5----|
a---------------------------------------------------------------------|
e---------------------------------------------------------------------|
Lead
e---------------------------10-------------------------------10-------|
b------------------------------10/12~---------------------------12----|
g---------------------------------------------------------------------|
d---------------------------------------------------------------------|
a---------------------------------------------------------------------|
e---------------------------------------------------------------------|


Rythym
e--2-------------------------------2----------------------------------|
b--3-----3-----3---3-----3-----3---3-----3-----3---3-----3-----3------|
g--2-2-2-2-2-2-2-2-2-2-2-2-2-2-2-2-2-2-2-2-2-2-2-2-2-2-2-2-2-2-2-2----|
d--0-0-0-0-0-0-0-0-0-0-0-0-0-0-0-0-0-0-0-0-0-0-0-0-0-0-0-0-0-0-0-0----|
a---------------------------------------------------------------------|
e---------------------------------------------------------------------|
Lead
e---------------------------10----10-------------------------10-------|
b--12-10~----------------------10-12-10-------------------------10----|
g---------------------------------------------------------------------|
d---------------------------------------------------------------------|
a---------------------------------------------------------------------|
e---------------------------------------------------------------------|


Rythym
e--3-------------------------------2----------------------------------|
b--3-----3-----3---3-----3-----3---3-----3-----3---3-----3-----3------|
g--0-0-0-0-0-0-0-0-0-0-0-0-0-0-0-0-0-0-0-0-0-0-0-0-0-0-0-0-0-0-0-0----|
d--5-5-5-5-5-5-5-5-5-5-5-5-5-5-5-5-5-5-5-5-5-5-5-5-5-5-5-5-5-5-5-5----|
a---------------------------------------------------------------------|
e---------------------------------------------------------------------|
Lead
e---------------------------10---------------------------------5------|
b--12~--------------------------10/12~---------------------------7----|
g---------------------------------------------------------------------|
d---------------------------------------------------------------------|
a---------------------------------------------------------------------|
e---------------------------------------------------------------------|


Rythym
e--0------------------------------------------------------------------|
b--0-------------------------------0-----0-----0-0-3-3-3-3-3-3-3-3----|
g--2-2-2-2-2-2-2-2-2-2-2-2-2-2-2-2-2-2-2-2-2-2-2-2-2-2-2-2-2-2-2-2----|
d--2-2-2-2-2-2-2-2-2-2-2-2-2-2-2-2-2-2-2-2-2-2-2-2-2-2-2-2-2-2-2-2----|
a--0-0-0-0-0-0-0-0-0-0-0-0-0-0-0-0-0-0-0-0-0-0-0-0-0-0-0-0-0-0-0-0----|
e---------------------------------------------------------------------|
Lead
e---------------------------------------------------------------------|
b--7--5~--------------------------------------------------------------|
g---------------------------------------------------------------------|
d---------------------------------------------------------------------|
a---------------------------------------------------------------------|
e---------------------------------------------------------------------|



Verse:

e-----------------------------------|
b-----------------------------------|
g-----------------------------------|
d--4---4---4---4-2-4-2-0---2---2----| Repeat as necesary
a--5-5-5-5-5-5-5-5-5-5-5-5-5-5-5-5--|
e-----------------------------------|
   pm.............................

Halfway through the verse, a second guitar comes in:

e-----------------------------------|
b--3---3---3---3-2-0---0---2---2----|
g--2-2-2-2-2-2-2-2-2-2-2-2-2-2-2-2--|
d-----------------------------------| Repeat as necesary
a-----------------------------------|
e-----------------------------------|
   pm.............................



Pre Chorus:

e---------------------------------------------------------------------|
b--0-------------------------------0----------------------------------|
g--0-0-0-0-0-0-0-0-0-0-0-0-0-0-0-0-0-0-0-0-0-0-0-0-0-0-0-0-0-0-0-0----|
d--2-2-2-2-2-2-2-2-2-2-2-2-2-2-2-2-2-2-2-2-2-2-2-2-2-2-2-2-2-2-2-2----|
a--0-0-0-0-0-0-0-0-0-0-0-0-0-0-0-0-0-0-0-0-0-0-0-0-0-0-0-0-0-0-0-0----|
e---------------------------------------------------------------------|



Chorus:

Rythym
e--3-------------------------------2----------------------------------|
b--3-3-3-3-3-3-3-3-3-3-3-3-3-3-3-3-3-3-3-3-3-3-3-3-3-3-3-3-3-3-3-3----|
g--0-0-0-0-0-0-0-0-0-0-0-0-0-0-0-0-0-0-0-0-0-0-0-0-0-0-0-0-0-0-0-0----|
d--5-5-5-5-5-5-5-5-5-5-5-5-5-5-5-5-5-5-5-5-5-5-5-5-5-5-5-5-5-5-5-5----|
a---------------------------------------------------------------------|
e---------------------------------------------------------------------|
Lead
e---------------------------10-------------------------------10-------|
b-/12~-------------------------10/12~---------------------------12----|
g---------------------------------------------------------------------|
d---------------------------------------------------------------------|
a---------------------------------------------------------------------|
e---------------------------------------------------------------------|


Rythym
e--2-------------------------------2----------------------------------|
b--3-3-3-3-3-3-3-3-3-3-3-3-3-3-3-3-3-3-3-3-3-3-3-3-3-3-3-3-3-3-3-3----|
g--2-2-2-2-2-2-2-2-2-2-2-2-2-2-2-2-2-2-2-2-2-2-2-2-2-2-2-2-2-2-2-2----|
d--0-0-0-0-0-0-0-0-0-0-0-0-0-0-0-0-0-0-0-0-0-0-0-0-0-0-0-0-0-0-0-0----|
a---------------------------------------------------------------------|
e---------------------------------------------------------------------|
Lead
e----------------------------10------------------------------10-------|
b--10~--------------------------12-10---------------------------10----|
g---------------------------------------------------------------------|
d---------------------------------------------------------------------|
a---------------------------------------------------------------------|
e---------------------------------------------------------------------|


Rythym
e--3-------------------------------2----------------------------------|
b--3-3-3-3-3-3-3-3-3-3-3-3-3-3-3-3-3-3-3-3-3-3-3-3-3-3-3-3-3-3-3-3----|
g--0-0-0-0-0-0-0-0-0-0-0-0-0-0-0-0-0-0-0-0-0-0-0-0-0-0-0-0-0-0-0-0----|
d--5-5-5-5-5-5-5-5-5-5-5-5-5-5-5-5-5-5-5-5-5-5-5-5-5-5-5-5-5-5-5-5----|
a---------------------------------------------------------------------|
e---------------------------------------------------------------------|
Lead
e---------------------------10-------------------------------10-------|
b-/12~-------------------------10/12~---------------------------12----|
g---------------------------------------------------------------------|
d---------------------------------------------------------------------|
a---------------------------------------------------------------------|
e---------------------------------------------------------------------|


Rythym
                                   Bm
e--2-------------------------------2----------------------------------|
b--3-3-3-3-3-3-3-3-3-3-3-3-3-3-3-3-3-3-3-3-3-3-3-3-3-3-3-3-3-3-3-3----|
g--2-2-2-2-2-2-2-2-2-2-2-2-2-2-2-2-4-4-4-4-4-4-4-4-4-4-4-4-4-4-4-4----|
d--0-0-0-0-0-0-0-0-0-0-0-0-0-0-0-0-4-4-4-4-4-4-4-4-4-4-4-4-4-4-4-4----|
a----------------------------------2-2-2-2-2-2-2-2-2-2-2-2-2-2-2-2----|
e---------------------------------------------------------------------|
Lead
e----------------------------10/12/14~--------------------------12----|
b--10~----------------------------------------------------------------|
g---------------------------------------------------------------------|
d---------------------------------------------------------------------|
a---------------------------------------------------------------------|
e---------------------------------------------------------------------|


Rythym
   G                               A
e--3-3-3-3-3-3-3-3-3-3-3-3-3-3-3-3------------------------------------|
b--3-3-3-3-3-3-3-3-3-3-3-3-3-3-3-3-0-0-0-0-0-0-0-0-0-0-0-0-0-0-0-0----|
g--0-0-0-0-0-0-0-0-0-0-0-0-0-0-0-0-2-2-2-2-2-2-2-2-2-2-2-2-2-2-2-2----|
d--0-0-0-0-0-0-0-0-0-0-0-0-0-0-0-0-2-2-2-2-2-2-2-2-2-2-2-2-2-2-2-2----|
a--2-2-2-2-2-2-2-2-2-2-2-2-2-2-2-2-0-0-0-0-0-0-0-0-0-0-0-0-0-0-0-0----|
e--3-3-3-3-3-3-3-3-3-3-3-3-3-3-3-3------------------------------------|
Lead
e-/14~--------------------------10\5~---------------------------------|
b---------------------------------------------------------------------|
g---------------------------------------------------------------------|
d---------------------------------------------------------------------|
a---------------------------------------------------------------------|
e---------------------------------------------------------------------|


Verse

Pre Chorus

Chorus

Bridge:

e-----------------------------------6--6----------8--10--8--10----|
b--10-10-10----------10----10-10----6-----10--8---8---------------|
g--10-10-10----10-10--9-----9--9----7-------------9---------------|
d--10-10-10----10-10-10----10-10----8------------10---------------| x2
a--8--8--8------8--8--8-----8--8----8------------10---------------|
e-----------------------------------6-------------8---------------|


e--10-----10-----10---10-10-----10-----10---10---10-10----|
b--7------7------7----7--7------7------7----7----7--7-----|
g--7--7-7-7--7-7-7--7-7--7--7-7-7--7-7-7--7-7--7-7--7-----|
d--7--7-7-7--7-7-7--7-7--7--7-7-7--7-7-7--7-7--7-7--7-----| x2
a--5--5-5-5--5-5-5--5-5--5--5-5-5--5-5-5--5-5--5-5--5-----|
e---------------------------------------------------------|


e-------10----------7--------9-----------|-------10-----------------------|
b----10-----10----8---8---10---10--------|----10-----10-------------------|
g---------------7-------9----------------|---------------4-4-4-4-6-6-6-6--|
d----------------------------------(x3)--|---------------5-5-5-5-7-7-7-7--|
a----------------------------------------|---------------5-5-5-5-7-7-7-7--|
e----------------------------------------|---------------3-3-3-3-5-5-5-5--|


e-----------------------------------------|--------------------|
b--7-7-7-7-7-7-7-7------------------------|--0--------0--------|
g--7-7-7-7-7-7-7-7-4-4-4-4-6-6-6-6--------|--0--------0--------|
d--7-7-7-7-7-7-7-7-5-5-5-5-7-7-7-7--(x4)--|--2--------2--------|
a--5-5-5-5-5-5-5-5-5-5-5-5-7-7-7-7--------|--0--------0--------|
e------------------3-3-3-3-5-5-5-5--------|--------------------|


Chorus

Outro:

Bm, G, A x2


Ending:

e---------2-0-----------2-0--------------|-----|
b--3----3--------3----3---------3--------|--3--|
g--2--2--------2----2---------2----------|--2--|
d--0------------------------0------(x2)--|--0--|
a----------------------------------------|-----|
e----------------------------------------|-----|


Tabbed by Jason Zarpellon
jason_zarps@hotmail.com
www.thelivingendtabpage.cjb.net






Tap to rate this tab
 
# A B C D E F G H I J K L M N O P Q R S T U V W X Y Z