Song name
# A B C D E F G H I J K L M N O P Q R S T U V W X Y Z

The Living End - Problem tab

                           PROBLEM

pm= palm mute
/= slide up
\= silde down
p= pull off
h= hammer on
^= bend
v= bring bend down



Verse:

e----------------------------------------------------------3--3----------1-1--|
b------------------------------3-3-3-3-3-3-3--3-----------3---3---------1--1--|
g-5----------------------------3-3-3-3-3-3-3--3----------4----4--------2---2--|
d-5-5-5-5-5-5-5-5-5-5-5-5-5-5--3-3-3-3-3-3-3--3-----5---5-----5---3---3----3--|
a-3-3-3-3-3-3-3-3-3-3-3-3-3-3--1-1-1-1-1-1-1--1p0---5--5------5---3--3-----3--|
e---------------------------------------------------3-3-------3---1-1------1--|
    pm.......................


e-------------------------3--------|
b-4--4------------------4---4------|
g-3--3----------------5-------5----|
d-1--0-------------/5--------------|
a-------3-3-1----------------------|
e----------------------------------|
                                    

e----------------------------------------------------------3--3----------1-1--|
b------------------------------3-3-3-3-3-3-3--3-----------3---3---------1--1--|
g-5----------------------------3-3-3-3-3-3-3--3----------4----4--------2---2--|
d-5-5-5-5-5-5-5-5-5-5-5-5-5-5--3-3-3-3-3-3-3--3-----5---5-----5---3---3----3--|
a-3-3-3-3-3-3-3-3-3-3-3-3-3-3--1-1-1-1-1-1-1--1p0---5--5------5---3--3-----3--|
e---------------------------------------------------3-3-------3---1-1------1--|
    pm.......................


e-------------------------3------------3------------3------|
b-4--4------------------4---4--------4---4--------4---4----|
g-3--3----------------5-------5----5-------5----5-------5--|
d-1--0-------------/5-----------/5----------/5-------------|
a-------3-3-1----------------------------------------------|
e----------------------------------------------------------|



Chorus:

e-4-4-4-4--------------3-3-3------------4--3--1--------------------------------------|
b-4-4-4-4--8-8-8-8-----3-3-3------------4--3--1--------------------------------------|
g-5-5-5-5--8-8-8-8-----4-4-4--6-6-6-6---5--4--2--8--6-6-6-6-6-6-6-6-8-8-8-8-8-8-8-8--|
d-6-6-6-6--8-8-8-8---3-3-3-3--6-6-6-6---6--5--3--8--6-6-6-6-6-6-6-6-8-8-8-8-8-8-8-8--|
a-6-6-6-6--6-6-6-6---3-3-3-3--4-4-4-4---6--5--3--6--4-4-4-4-4-4-4-4-6-6-6-6-6-6-6-6--|
e-4-4-4-4------------1-1-1-1------------4--3--1--------------------------------------|



e-4-4-4-4--------------3-3-3------------4--3--1---------------------4-4-4-4-4-4-4-4--|
b-4-4-4-4--8-8-8-8-----3-3-3--6-6-6-6---4--3--1---------------------5-5-5-5-5-5-5-5--|
g-5-5-5-5--8-8-8-8-----4-4-4--6-6-6-6---5--4--2--8--6-6-6-6-6-6-6-6-6-6-6-6-6-6-6-6--|
d-6-6-6-6--8-8-8-8---3-3-3-3--6-6-6-6---6--5--3--8--6-6-6-6-6-6-6-6-6-6-6-6-6-6-6-6--|
a-6-6-6-6--6-6-6-6---3-3-3-3--4-4-4-4---6--5--3--6--4-4-4-4-4-4-4-4-4-4-4-4-4-4-4-4--|
e-4-4-4-4------------1-1-1-1------------4--3--1--------------------------------------|


e-4-4-4-4-4-4-4-4-4-4-4-4-4---|
a-4-4-4-4-4-4-4-4-4-4-4-4-4---|
d-5-5-5-5-5-5-5-5-5-5-5-5-5---|
g-6-6-6-6-6-6-6-6-6-6-6-6-6---|
b-6-6-6-6-6-6-6-6-6-6-6-6-6---|
e-4-4-4-4-4-4-4-4-4-4-4-4-4---|


Verse

Chorus


Solo: I think the rythem is like Bm, F#, G#, E
 
 
e---7-----7----------------|
b--10^^--10^^v--7-10--7----|
g--------------------------|
d--------------------------|
a--------------------------|
e--------------------------|


e--x--6-7-9-6h7p6h7p6----------------------------4-7------|
b--x------------------9-7------------4-2-------5---7------|
g--------------------------1-4-3h4p1-----4-3/4-------9----|
d---------------------------------------------------------|
a---------------------------------------------------------|
e---------------------------------------------------------|

e-----7-----------2---2---2---2-2------------------4-7-----------|
b-----7-----------2---2---2---2-2-----------------5--7-9-7-------|
g--6^---6^v-4-6-4-3-3-3-3-3-3-3-3--------1-0-4-3-4---------------|
d------------------------------------2-1-------------------------|
a----------------------------------------------------------------|
e----------------------------------4-----------------------------|

 
Finger Tapping
e--14p11p7--14p11p7--14p11p7--14p11p7--------------------------------------|
b--------------------------------------14p11p7--14p11p7--14p11p7--14p11p7--|
b--------------------------------------------------------------------------|
d--------------------------------------------------------------------------|
a--------------------------------------------------------------------------|
e--------------------------------------------------------------------------|


 
e----------------------------------------------------------|
b--12p9p5--12p9p5--12p9p5--12p9p5--12p9p5--12p9p5-12p9-----|
g----------------------------------------------------------|
d----------------------------------------------------------|
a----------------------------------------------------------|
e----------------------------------------------------------|


  
e-------------------------------------6-6p4----12-----------|
b-7--7^-------------------------------4-4------12-----------|
g-7--7^----------------------------------------13-----9\----|
d--------7h9p7---7-----------------------------12-----9\----|
a--------------9---9p7-5-----------------------14-----7\----|
e------------------------7-6-5-4-2-------------12-----0-----|
                                            (whammy)


Verse

Chorus

Tabbed by Jason Zarpellon
jason_zarps@hotmail.com



Tap to rate this tab
# A B C D E F G H I J K L M N O P Q R S T U V W X Y Z