Guitaretab - guitar tabs
Song name
# A B C D E F G H I J K L M N O P Q R S T U V W X Y Z

The Living End - One More Cell tab

Intro:

Eb-----3----------3----------0------0-1-3-8-7-|
Bb---5---5------5---5------1---1----1-3-5-9-8-|
Gb-5-------5--4-------4--2-------2------------|
Db--------------------------------------------|
Ab--------------------------------------------|
Eb--------------------------------------------|

Eb-----3----------3----------0-----0-1-3-8-10-|
Bb---5---5------5---5------1---1---1-3-5-9-12-|
Gb-5-------5--4-------4--2-------2------------|
Db--------------------------------------------|
Ab--------------------------------------------|
Eb--------------------------------------------|

    Cmaj7       C
Eb--------------------------|
Bb------5-------------------|
Gb--------4-----5-5-5-5-----|
Db----5-----5---5-5-5-5-----|
Ab--3-----------3-3-3-3-----|
Eb----------------------3^--|

Verse: (MAINLY up strokes)

    Fm          G#
Eb--1-1-1-1-1-1-4-4--|
Bb--1-1-1-1-1-1-4-4--|
Gb--1-1-1-1-1-1-5-5--|
Db--3-3-3-3-3-3-6-6--|(x4)
Ab-------------------|
Eb-------------------|

PreChorus:

    F#               G#
Eb------------------------------------|
Bb------------------------------------|
Gb------------------------------------|
Db------4-------4--------6-------6----|(x3)
Ab----4---4---4---4----6---6---6---6--|
Eb--2-------2--------4-------4--------|

    C# G# F#
Eb-----------------------------------------|
Bb-----------------------------------------|
Gb--6--------------------------------------|
Db--6--6--4-----------------------4-4-4-4--|
Ab--4--6--4-----------------------4-4-4-4--|
Eb-----4--2-2-2-2-2-2-2-2-2-2-2-2-2-2-2-2--|
           / p a l m   m u t e d.........\

Chorus: This sounds real good with 2 guitars but if u want to take the challenge and 
both parts....Hey b my guest!

Gtr 1:
    C#       G#       A
Eb-------------------------------------|
Bb-------------------------------------|
Gb--6-6-6-6----------------------------|
Db--6-6-6-6--6-6-6-6--7-7-7-7-7-7-7-7--|
Ab--4-4-4-4--6-6-6-6--7-7-7-7-7-7-7-7--|
Eb-----------4-4-4-4--5-5-5-5-5-5-5-5--|

Gtr2:
Eb----------------------------------------|
Bb----------------------------5-7^-5------|
Gb-----------------------------------6s4--|
Db----------------------------------------|
Ab----------------------------------------|
Eb----------------------------------------|


Gtr 1:
    E                C#       G#
Eb-------------------------------------|
Bb-------------------------------------|
Gb--9-9-9-9-9-9-9-9--6-6-6-6-----------|
Db--9-9-9-9-9-9-9-9--6-6-6-6--6-6-6-6--|
Ab--7-7-7-7-7-7-7-7--4-4-4-4--6-6-6-6--|
Eb----------------------------4-4-4-4--|


Gtr 2:
Eb-------------------------------------|
Bb-------------------------------------|
Gb-------------------------------------|
Db-------------------------------------|
Ab-------------------------------------|
Eb----------------------------4-3-2-0--|

Repeat from start of chorus,

    C#m        A
Eb--------4----------5--|
Bb-------5----------5---|
Gb------6----------6----|
Db-----6----------7-----|(x3)
Ab--4-4----------7------|
Eb------------5-5-------|

    G#
Eb---------|
Bb---------|
Gb---------|
Db--6-6-6--|
Ab--6-6-6--|
Eb--4-4-4--|


Verse

PreChorus

Chorus


Bridge:
[ Tab from: http://www.guitaretab.com/t/the-living-end/154071.html ]
    G#      G       F#      F
Eb-----------------------------------|
Bb-----------------------------------|
Gb-----------------------------------|
Db--6-6-6-6-5-5-5-5-4-4-4-4-3-3-3-3--|
Ab--6-6-6-6-5-5-5-5-4-4-4-4-3-3-3-3--|
Eb--4-4-4-4-3-3-3-3-2-2-2-2-1-1-1-1--|


    G#      A       F#      F
Eb-----------------------------------|
Bb-----------------------------------|
Gb-----------------------------------|
Db--6-6-6-6-5-5-5-5-4-4-4-4-3--3--3--|
Ab--6-6-6-6-5-5-5-5-4-4-4-4-3--3--3--|
Eb--4-4-4-4-3-3-3-3-2-2-2-2-1--1--1--|


Solo:

Eb-----------------------|
Bb---------7-6-----------|
Gb-----6-8-----8-6s3(D)--|
Db---7-------------------|
Ab-----------------------|
Eb-----------------------|

From over verse,

Eb--------------------------------|
Bb-----------------------------9--|
Gb--10-8-10-8-10-6----10-8--10----|
Db--------------------------------|
Ab--------------------------------|
Eb--------------------------------|

Eb-----------------------------|
Bb-----------------------------|
Gb--10-8-10-6-8-6-5-3-5-3h5-3--|
Db-----------------------------|
Ab-----------------------------|
Eb-----------------------------|

Eb--4-----------------------------|
Bb----6-6-4-----------------------|
Gb----------6-5-6-5-6-5-3-5-3-3~--|
Db--------------------------------|
Ab--------------------------------|
Eb--------------------------------|

Eb-----------------------------------|
Bb-----------------------------------|
Gb--3-3-3--5-5-5--6-6-6--8-8-8--6-8--|
Db-----------------------------------|
Ab-----------------------------------|
Eb-----------------------------------|

Solo is over C#, A, and B

Eb----------------------------------------|
Bb--4^-4-2--4^-4-2--4^-4-2--4^-4-2-4-4s9--|
Gb----------------------------------------|
Db----------------------------------------|
Ab----------------------------------------|
Eb----------------------------------------|

Eb-----------9---10s12-11-9--|
Bb--9h10p9-9---9-------------|
Gb---------------------------|
Db---------------------------|
Ab---------------------------|
Eb---------------------------|

Eb--12-11-9---------------------------------------------|
Bb----------12-10--9-10-9-10-9-10-9---------------------|
Gb----------------------------------11-9-9-9^-----------|
Db--------------------------------------------13-13-11--|
Ab------------------------------------------------------|
Eb------------------------------------------------------|

  this bit is pretty darn fast
Eb-----------------------------------------------|
Bb-----------------------------------------------|
Gb-----------------------------------------------|
Db--11-11-13-12-11-------------------------------|
Ab-----------------13-12-11-13-12-11-------------|
Eb-----------------------------------13-12-11-9--|

Eb----------------------------------|
Bb----------------------------------|
Gb--6-6-6-8-8-8-8-9-9-9-11-11-11-11-|
Db--x-x-x-x-x-x-x-x-x-x-x--x--x--x--|
Ab--4-4-4-6-6-6-6-7-7-7-9--9--9--9--|
Eb----------------------------------|

Eb----------------------------------|
Bb----------------------------------|
Gb--6-6-6-8-8-8-8-9-9-9-11-11-11-11-|
Db--x-x-x-x-x-x-x-x-x-x-x--x--x--x--|
Ab--4-4-4-6-6-6-6-7-7-7-9--9--9--9--|
Eb----------------------------------|

PreChorus

Chorus(x2)


Outro:

Eb-----3----------3----------0-----0-1-3-8-10-|
Bb---5---5------5---5------1---1---1-3-5-9-12-|
Gb-5-------5--4-------4--2-------2------------|
Db--------------------------------------------|
Ab--------------------------------------------|
Eb--------------------------------------------|

  C#min
Eb--3--|
Bb--5--|
Gb--4--|
Db--5--|
Ab--3--|
Eb-----|

By Mikey. B
Related for One More Cell tab