Guitaretab - guitar tabs
Song name
# A B C D E F G H I J K L M N O P Q R S T U V W X Y Z

The Living End - White Noise tab

Intro
Bm G
E----5-5-5-5-5-5--0-0-0-0-0-0-----0-0-0-0-0-0-0-0-0-0-0-0-0-0-0-0-0-0-0-0-0-0-0-0-|
B----7-7-7-7-7-7--5-5-5-5-5-5-----6-6-6-6-6-6-3-3-3-3-3-3-2-2-2-2-2-2-3-3-3-3-3-3-|
G----7-7-7-7-7-7--6-6-6-6-6-6-x2--5-5-5-5-5-5-4-4-4-4-4-4-2-2-2-2-2-2-4-4-4-4-4-4-|
D---------------------------------0-0-0-0-0-0-0-0-0-0-0-0-0-0-0-0-0-0-0-0-0-0-0-0-|
A---------------------------------------------------------------------------------|
E---------------------------------------------------------------------------------| 
Repeat whole section twice

Post Intro:

G D Eb C G D Eb C 
E-------------------------------------|
B-12--7--8--5---12--7--8--5-----------|
G-12--7--8--5---12--7--8--5-----------|
D-12--7--8--5---12--7--8--5-----------|
A-------------------------------------|
E-------------------------------------| x 2

Verse 1
G Eb
E---------------------------------------|
B---------12-------------8--------------|
G----12------12------8-----8------------|
D-12----12------12s8---8-----8s12-------|
A---------------------------------------|
E---------------------------------------| x3

for the last part of the verse do this
F
E---------------------------------------------|
B---------10-------------------10-------------|
G----10------10----10----10-------10----10----|
D-10----10------10----10----10-------10-------|
A---------------------------------------------|
E---------------------------------------------| x3

Verse 2
G Eb
E---------------------------------------|
B---------12-------------8--------------|
G----12------12------8-----8------------|
D-12----12------12s8---8-----8s12-------|
A---------------------------------------|
E---------------------------------------| x3

for the last part of the verse do this
F
E---------------------------------------------|
B---------10-------------------10-------------|
G----10------10----10----10-------10----10----|
D-10----10------10----10----10-------10-------|
A---------------------------------------------|
E---------------------------------------------|

Pre Chorus:

Stab these chords down
Cm Dm
E-3-3-3-3-3-3-3-3--5-5-5-5-5-5-5-5--|
B-4-4-4-4-4-4-4-4--6-6-6-6-6-6-6-6--|
G-5-5-5-5-5-5-5-5--7-7-7-7-7-7-7-7--|
D-5-5-5-5-5-5-5-5--7-7-7-7-7-7-7-7--|
A-3-3-3-3-3-3-3-3--5-5-5-5-5-5-5-5--|
E-----------------------------------|

Cm Dm D (major)
E-3-3-3-3-3-3-3-3--5-5-5-5-5-5-5-5--|
B-4-4-4-4-4-4-4-4--6-6-6-6-7-7-7-7--|
G-5-5-5-5-5-5-5-5--7-7-7-7-7-7-7-7--|
D-5-5-5-5-5-5-5-5--7-7-7-7-7-7-7-7--|
A-3-3-3-3-3-3-3-3--5-5-5-5-5-5-5-5--|
E-----------------------------------|
[ Tab from: http://www.guitaretab.com/t/the-living-end/169849.html ]
Strum this up and down twice as fast as the stabs
D
E---------------------------|
B-7-7-7-7-7-7-7-7-7-7-7-7---|
G-7-7-7-7-7-7-7-7-7-7-7-7---|
D-7-7-7-7-7-7-7-7-7-7-7-7---|
A-5-5-5-5-5-5-5-5-5-5-5-5---|
E---------------------------|

Chorus:

Bm G
E----5-5-5-5-5-5--0-0-0-0-0-0-----0-0-0-0-0-0-0-0-0-0-0-0-0-0-0-0-0-0-0-0-0-0-0-0-|
B----7-7-7-7-7-7--5-5-5-5-5-5-----6-6-6-6-6-6-3-3-3-3-3-3-2-2-2-2-2-2-3-3-3-3-3-3-|
G----7-7-7-7-7-7--6-6-6-6-6-6-x2--5-5-5-5-5-5-4-4-4-4-4-4-2-2-2-2-2-2-4-4-4-4-4-4-|
D---------------------------------0-0-0-0-0-0-0-0-0-0-0-0-0-0-0-0-0-0-0-0-0-0-0-0-|
A---------------------------------------------------------------------------------|
E---------------------------------------------------------------------------------| 
Repeat whole section twice

Post Chorus:

G D Eb C G D Eb C 
E-------------------------------------|
B-12--7--8--5---12--7--8--5-----------|
G-12--7--8--5---12--7--8--5-----------|
D-12--7--8--5---12--7--8--5-----------|
A-------------------------------------|
E-------------------------------------|

Verse 3
G Eb
E---------------------------------------|
B---------12-------------8--------------|
G----12------12------8-----8------------|
D-12----12------12s8---8-----8s12-------|
A---------------------------------------|
E---------------------------------------| x3

for the last part of the verse do this
F
E---------------------------------------------|
B---------10-------------------10-------------|
G----10------10----10----10-------10----10----|
D-10----10------10----10----10-------10-------|
A---------------------------------------------|
E---------------------------------------------| 

Verse 4
G Eb
E---------------------------------------|
B---------12-------------8--------------|
G----12------12------8-----8------------|
D-12----12------12s8---8-----8s12-------|
A---------------------------------------|
E---------------------------------------| x3

for the last part of the verse do this
F D
E--------------------------|
B---------10----------7----|
G----10------10-------7----|
D-10----10------10----7----|
A---------------------5----|
E--------------------------|

Chorus:

Bm G
E----5-5-5-5-5-5--0-0-0-0-0-0-----0-0-0-0-0-0-0-0-0-0-0-0-0-0-0-0-0-0-0-0-0-0-0-0-|
B----7-7-7-7-7-7--5-5-5-5-5-5-----6-6-6-6-6-6-3-3-3-3-3-3-2-2-2-2-2-2-3-3-3-3-3-3-|
G----7-7-7-7-7-7--6-6-6-6-6-6-x2--5-5-5-5-5-5-4-4-4-4-4-4-2-2-2-2-2-2-4-4-4-4-4-4-|
D---------------------------------0-0-0-0-0-0-0-0-0-0-0-0-0-0-0-0-0-0-0-0-0-0-0-0-|
A---------------------------------------------------------------------------------|
E---------------------------------------------------------------------------------| 
Repeat whole section twice
Related for White Noise tab