Song name
# A B C D E F G H I J K L M N O P Q R S T U V W X Y Z

The Lonely Island - Lazy Sunday tab

its just the base and it goes like

A5                                         G5 A5
Lazy Sunday, wake up in the late afternoon.
A5                                         G5 A5
Call Parnell just to see how he’s doin’.
... and so its goes all the song now to the break parts


No doubt that bakery’s got all da bomb frostins.
I love those cupcakes like McAdams loves Gosling.

e:---------------|
B:---------4-6---|
G:5-5-5-3-5----5-|
D:---------------|
A:---------------|
E:---------------|

and the second one is

e:---------------------|
B:----4----------4-----|
G:5-5---5-3--5-5---5-3-|
D:---------------------|
A:---------------------|
E:---------------------|

just with effects
Tap to rate this tab
# A B C D E F G H I J K L M N O P Q R S T U V W X Y Z