Song name
# A B C D E F G H I J K L M N O P Q R S T U V W X Y Z

The Long Blondes - Darts tab

Help us improve GuitareTab! Take a short survey!
Artist: The Long Blondes    http://www.thelongblondes.co.uk/
Track: Darts
Tabber: Woodshed



INTRO

Riff 1
e|-------------------------------------------------------------------------|
B|-------------------------------------------------------------------------|
G|----------------11-10---------------------------11-10--------------------|
D|---------10-11---------10-11------------10-11------------11--------------|
A|---10-11------------------------10-11------------------------------------|
E|-------------------------------------------------------------------------|

e|-------------------------------------------------------------------------|
B|-------------------------------------------------------------------------|
G|----------------11-10---------------------------11-10--------------------|
D|---------10-11---------10-11------------10-11------------11--------------|
A|---10-11------------------------10-11------------------------------------|
E|-------------------------------------------------------------------------|


Riff 2                    
e|-------------------------------------------------------------------------|
B|-------------------------------------------------------------------------|
G|-------------------------------------------------------------------------|
D|--/6-6-6-6-/10-10-10-10-/13-13-13-13b14-14-14-14-------------------------|
A|-------------------------------------------------------------------------|
E|-------------------------------------------------------------------------|
     First of January here we go

Riff 1


Riff 2                        Riff 1
'Nother year, 'nother show


Riff 3
e|-------------------------------------------------------------------------|
B|-------------------------------------------------------------------------|
G|-------------------------11----------------------------------------------|
D|-------11-10-------10----------------------------------------------------|
A|---11----------11--------------------------------------------------------|
E|-------------------------------------------------------------------------|
    Darts, it starts today

Riff 3
Darts, I want to play

Riff 3
Darts, the oche's free

Riff 3
Darts, for you and me

Riff 3
Darts, with Bobby George

Riff 3
Darts, and Sid Waddell

Riff 3
Darts, I'll hit the bull

Riff 3
Darts, I'll hit the bull

Riff 4
e|-------------------------------------------------------------------------|
B|-------------------------------------------------------------------------|
G|-------------------------------------------------------------------------|
D|---11--11-11-9--9-9-\5--5-5-4--------------------------------------------|
A|-------------------------------------------------------------------------|
E|-------------------------------------------------------------------------|
                            Let's play darts

Riff 1

e|-------------------------------------------------------------------------|
B|-------------------------------------------------------------------------|
G|-------------------------------------------------------------------------|
D|--11-11-11-11-9-9-9-9-5-5-5-5-4-4-4--------------------------------------|
A|-------------------------------------------------------------------------|
E|-------------------------------------------------------------------------|
                                     Lets play darts

C#

C# B G  F#
C# B G  F#
C# B G  F#

C#
Let's play darts
Related for Darts tab