Song name
# A B C D E F G H I J K L M N O P Q R S T U V W X Y Z

The Loserz - Euphoria tab

The Loserz - "Euphoria"


Words and Music by Kerrick Shock, Ryan Young, Matthew Clapper, Trevor Carnes, 
Teric Dudley, and Jadon Taylor



Key:
h      - hammer on
p      - pull-off
/      - slide up
\      - slide down
pm     - palm mute
(4/4)  - time signature
~      - wah effect
(1/2b) - half bend
(1/4b) - quarter bend
b      - full bend
*      - harmonic
x      - muted string



============================================================================


Tuning: Drop D (EBGDAD)


Intro
     Moderately Slow,  82 BPM
(4/4)
|-------------------------------|-------------------------------|
|-------------------------------|-------------------------------|
|-0h2-2/5--------0h2-2/5--------|-0h2-2/5--------0h2-2/5--------|
|---------0--0-0---------0--0-0-|---------0--0-0---------0--0-0-|
|-------------------------------|-------------------------------|
|-------------------------------|-------------------------------|

Verse
|---------------------------------|---------------------------------|
|---------------------------------|---------------------------------|
|---------------------------------|---------------------------------|
|---------------------------------|---------------------------------|
|-5h7-7/10-0--0-0-5h7-7/10-0--0-0-|-5h7-7/10-0--0-0-5h7-7/10-0--0-0-|
|-5h7-7/10-0--0-0-5h7-7/10-0--0-0-|-5h7-7/10-0--0-0-5h7-7/10-0--0-0-|
              pm-             pm-               pm-             pm

(6/4)
|-----------------------------------|----------------------------------|
|-----------------------------------|----------------------------------|
|-----------------------------------|----------------------------------|
|-----------------------------------|----------------------------------|
|-----------------------------------|----------------------------------|
|-5h7-0-10-0-0--13--12----------0-0-|-5h7-0-10-0-0-13--12----------0-0-|


Fill 1
|------------------11-----14~~~~~~~-|
|-----------------------------------|
|-----------------------------------|
|-----------------------------------|
|-----------------------------------|
|-5h7-0-10-0-0----------------------|


|-----------------------------------|----------------------------------|
|-----------------------------------|----------------------------------|
|-----------------------------------|-0h2-0-5-0-0--8-7-----------------|
|-----------------------------------|-0h2-0-5-0-0--8-7-------------0-0-|
|-5h7-0-10-0-0--13--12----------0-0-|----------------------------------|
|-5h7-0-10-0-0--13--12----------0-0-|----------------------------------|

|-----------------------------------|----------------------------------|
|-----------------------------------|----------------------------------|
|-----------------------------------|----------------------------------|
|-----------------------------------|------------------------------0-0-|
|-5h7-0-10-0-0--13--12----------0-0-|-5h7-0-10-0-0--13--12-------------|
|-5h7-0-10-0-0--13--12----------0-0-|-5h7-0-10-0-0--13--12-------------|

Pre-Chorus
|-----------------------------------|----------------------------------|
|----2-----5-----7------------------|----2-----5-----7-----------------|
|-2----/5----/7---------------------|-2----/5----/7--------------------|
|-------------------------------0-0-|------------------------------0-0-|
|-----------------------------------|----------------------------------|
|-----------------------------------|----------------------------------|

|-----------------------------------|----------------------------------|
|----2-----5-----7------------------|----2-----5-----7-----------------|
|-2----/5----/7---------------------|-2----/5----/7--------------------|
|-------------------------------0-0-|------------------------------12\-|
|-----------------------------------|----------------------------------|
|-----------------------------------|----------------------------------|

(4/4)
|-------------------------------|--------------------------------------|
|-------------------------------|--------------------------------------|
|-------------------------------|--------------------------------------|
|--------2--2-------------------|--------------2--2------0--0-0--------|
|-2-----------3--3-0--0-0-0-----|-------------------3--3-0--0-0--------|
|-2--2-2--------------------2-2-|-2(1/2b)--2-2------------------0-0-0-0|
                                                                pm-----

|-------------------------------|-----------------------------------|
|-------------------------------|-----------------------------------|
|--------2--2-------------------|-----------------------------------|
|-------------3--3-0--0-0-0-----|--------------2--2------0--0-0-0-0-|
|-2-----------------------------|-------------------3--3-0--0-0-0-0-|
|-2--2-2--------------------0-0-|-2(1/2b)--2-2----------------------|

Chorus
|-------------------------------------|----------------------------------|
|-------------------------------------|----------------------------------|
|-------------------------------------|----------------------------------|
|------------14-\10-10--10------------|------------14-\10-10-------------|
|-2--x-x-x-x-14-\10-10--10-7--7-7-7---|-2--x-x-x-x-14-\10-10--5--5-5-5---|
|-2--x-x-x-x-14-\10-10--10-7--7-7-7p0-|-2--x-x-x-x-14-\10-10--5--5-5-5-0-|

Interlude (13/16)            (15/16)
|---------------------------|-----------------------------|
|---------------------------|-----------------------------|
|---------------------------|-----------------------------|
|---------------------------|-----------------------------|
|---------------------------|-----------------------------|
|-5-3-0-2-1-0-5-3-0-2-0-6-0-|-5-3-0-2-1-0-5-3-0-2-0-3-6-0-|
 pm------------------------  pm--------------------------

(13/16)
|---------------------------|---------------------------|
|---------------------------|---------------------------|
|---------------------------|---------------------------|
|---------------------------|---------------------------|
|---------------------------|-----------------------3---|
|-5-3-0-2-1-0-5-3-0-2-0-6-0-|-5-3-0-2-1-0-5-3-0-2-0-3-0-|
 pm------------------------  pm--------------------

(4/4)
|------------------|
|------------------|
|------------------|
|-6----8---\3----0-|
|-6----8---\3----0-|
|-6----8---\3----0-|
                    D.C. al Coda


Coda (4/4)
|------------------------------------------|-----------------------------------|
|-------------------------------10-10--10\-|-5/--17---13---10--10-10-10-10-10--|
|--------------------------------9--9---9\-|-4/--16---12----9---9--9--9--9--9--|
|------------14-\10-10---10------7--7---7\-|-2/--14---10----7---7--7--7--7--7--|
|-2--x-x-x-x-14-\10-10---10--7---7--7---7\-|-2/--14---10----7---7--7--7--7--7--|
|-2--x-x-x-x-14-\10-10---10--7---7--7---7\-|-2/--14---10----7---7--7--7--7--7--|

|---------------------------------|---------------------------------|
|-5/--17--13--10--10-10-10-10-10\-|-5/--17--13--10--10-10-10-10-10\-|
|-4/--16--12---9---9--9--9--9--9\-|-4/--16--12---9---9--9--9--9--9\-|
|-2/--14--10---7---7--7--7--7--7\-|-2/--14--10---7---7--7--7--7--7\-|
|-2/--14--10---7---7--7--7--7--7\-|-2/--14--10---7---7--7--7--7--7\-|
|-2/--14--10---7---7--7--7--7--7\-|-2/--14--10---7---7--7--7--7--7\-|

|------------------------|
|-5/--17--13--8--8-8-8-8-|
|-4/--16--12--7--7-7-7-7-|
|-2/--14--10--5--5-5-5-5-|
|-2/--14--10--5--5-5-5-5-|
|-2/--14--10--5--5-5-5-5-|

Interlude (13/16)            (15/16)
|---------------------------|-------------------------------|
|---------------------------|-------------------------------|
|---------------------------|-------------------------------|
|---------------------------|-------------------------------|
|-5-3-0-2-1-0-5-3-0-2-0-6-0-|-5-3-0-2-1-0-5-3-0-2-0-3-0-6-0-|
|-5-3-0-2-1-0-5-3-0-2-0-6-0-|-5-3-0-2-1-0-5-3-0-2-0-3-0-6-0-|

(13/16)                      (15/16)
|---------------------------|-------------------------------|
|---------------------------|-------------------------------|
|---------------------------|-------------------------------|
|---------------------------|-------------------------------|
|-5-3-0-2-1-0-5-3-0-2-0-6-0-|-5-3-0-2-1-0-5-3-0-2-0-3-0-6-0-|
|-5-3-0-2-1-0-5-3-0-2-0-6-0-|-5-3-0-2-1-0-5-3-0-2-0-3-0-6-0-|

(13/16) (15/16) (13/16) (15/16)
(rest for four measures, alternating between 13/16 and 15/16 time signatures)

(13/16)                      (15/16)                           (5/16)
|---------------------------|---------------------------------|-------------|
|---------------------------|---------------------------------|-------------|
|---------------------------|---------------------------------|-------------|
|---------------------------|---------------------------------|-------------|
|---------------------------|---------------------------------|-------------|
|-5-3-0-2-1-0-5-3-0-2-0-6-0-|-5-3-0-2-1-0-5-3-0-2-0-3-0-5-0-7-|-0-10-0-11-0-|
 pm------------------------  pm------------------------------  pm----------



Bridge
      Slower,  44 BPM
(4/4)
|-----------------------------------------------|----------------------------|
|-----------------------------------------------|----------------------------|
|-----------------------------------------------|----------------------------|
|-----------------------------------------------|----------------------3---6-|
|-----------------------------------------------|----------------------3---6-|
|-12-h15--x--0--5-h8--0-3--3--0---x-x--x-x-x--x-|-12-15-x-0-5-6-5-0----3---6-|

|-------------------------------|------------------------------|
|-------------------------------|------------------------------|
|-------------------------------|------------------------------|
|-12/15-----5/8---3---3-0-------|-12/15-----5-6-5-0---3---6----|
|-12/15-0-0-5/8-0-3---3-0-------|-12/15-0-0-5-6-5-0---3---6----|
|-12/15-0-0-5/8-0-3---3-0-------|-12/15-0-0-5-6-5-0---3---6----|

|-------------------------------------------|--------------------------------|
|--------------------------------3----3-3---|--------------------------------|
|-5---(5)\--------------------------2-----2-|--------------------------------|
|-------------3--------------0--------------|------------------------------0-|
|---------------3--3(1/4b)---0--------------|-------------3-3--3--3(1/4b)--0-|
|-------------------------------------------|--------------------------------|
                                             (quar. rest)

                                      (6/4)
|------------------------------------|----------------10---10---10--10-10---10--|
|------------------------------------|----------------13b--13b--13b----13b--13b-|
|-5---3--------------2-2-2-2-2-2-2-2-|------------------------------------------|
|------------------0-----------------|-------5-6-5-0----------------------------|
|--------3-3(1/4b)-------------------|------------------------------------------|
|------------------------------------|------------------------------------------|

(9/8)
|-(10)----------------10-------------------------|--------------------------------------|
|-(13)-------13(1/2b)-13b---13(hold bend)--(13)--|--------------------------------------|
|------------------------------------------------|--(12b)---(12b)--(12b)-(12b)-(12b)----|
|------------------------------------------------|--------------------------------------|
|------------------------------------------------|--------------------------------------|
|------------------------------------------------|--------------------------------------|

|--------------------------------|--------------------------------|
|--------------------------------|--------------------------------|
|--------------------------------|--------------------------------|
|-12/15-----3---6---7----10---11-|-12/15-----3---6---7----10---11-|
|-12/15-0-0-3---6---7----10---11-|-12/15-0-0-3---6---7----10---11-|
|-12/15-0-0-3---6---7----10---11-|-12/15-0-0-3---6---7----10---11-|

|------------------------------------------------------------------------|
|------------------------------------------------------------------------|
|--(12)--(12)---------(12)----(12)-------------(12b)---(12b)-(12b)-(12b)-|
|------------------------------------------------------------------------|
|------------------------------------------------------------------------|
|------------------------------------------------------------------------|


Outro
     Faster,  116 BPM
(12/8)
|---------------------------------|---------------------------------|
|---------------------------------|---------------------------------|
|---------------------------------|---------------------------------|
|---------------0-12h15-----------|---------------0-12h15-----------|
|-------0-12h15---------0-12h15---|-------0-12h15---------0-12h15---|
|-12h15-------------------------0-|-12h15-------------------------0-|

|---------------------------------|---------------------------------|
|---------------------------------|---------------------------------|
|---------------------------------|---------------------------------|
|---------------0-12h15-----------|---------------0-12h15-----------|
|-------0-12h15---------0-12h15---|-------0-12h15---------0-12h15---|
|-12h15-------------------------0-|-12h15-------------------------0-|

|---------------------------------|---------------------------------|
|---------------------------------|---------------------------------|
|---------------------------------|---------------------------------|
|---------------0-12h15-----------|---------------0-12h15-----------|
|-------0-12h15---------0-12h15---|-------0-12h15---------0-12h15---|
|-12h15-------------------------0-|-12h15-------------------------0-|

|-------------------------|-------------------------|
|-------------------------|-------------------------|
|-------------------------|-------------------------|
|-----------0-0h3---------|-----------0-0h3---------|
|-----0-0h3-------0-0h3---|-----0-0h3-------0-0h3---|
|-0h3-------------------0-|-0h3-------------------0-|

(11/8)                                           (4/4)
|-----------------------|-----------------------|-----------------|
|-----------------------|-----------------------|-----------------|
|-----------------------|-----------------------|-----------------|
|-----------------------|-----------------------|-----------------|
|-5-3-0-2-1-0-5-3-0-2-0-|-5-3-0-2-1-0-5-3-0-2-0-|-5-3-0-2-0-5-3-0-|
|-5-3-0-2-1-0-5-3-0-2-0-|-5-3-0-2-1-0-5-3-0-2-0-|-5-3-0-2-0-5-3-0-|
 pm--------------------  pm--------------------


============================================================================

Lyrics:


Jump shah down
I've been struck dumb by a voice that
Speaks from deep beneath the endless water
It's twice as clear as heaven
Twice as loud as reason
Deep and rich like silt on a river-bed
Just as never-ending
Current's mouth below me
Opens up around me
Suggests and beckons all while swallowing
Surrounds and drowns and washes me away...
Oh, but I'm so comfortable
So comfortable

Shut up, shut up, shut up, you're saturating me
How could I let this bring me back to my knees?

Jump shah been
I've been baptized by your voice
It screams from deep beneath the cold, black water
It's half as high as heaven
Half as clear as reason
Cool and black like silt on a river-bed
Just as never-ending
Current's mouth below me
Opens up around me
Suggests and beckons all while swallowing
Surrounds and drowns and washes me away...

Shut up, shut up, shut up, you're saturating me
How can I let this happen?
Why don't you kill me?
For I am weak and numb and insignificant
How could I let this bring me back to my knees?

Euphoria...
Euphoria...
Euphoria...
Euphoria...
Euphoria...


I'm back down
I'm in the undertow
I'm helpless, and I'm awake
I'm in the undertow
Way down beneath the undertow
There doesn't seem no other way out of the undertow
Euphoria!

==========================================================================

www.loserzruleschool.webs.com
Tap to rate this tab
# A B C D E F G H I J K L M N O P Q R S T U V W X Y Z