Song name
# A B C D E F G H I J K L M N O P Q R S T U V W X Y Z

The Lost Colors - Say Ok tab

http://www.myspace.com/thelostcolors

Note: four line tabs mean bass only

G|--------|--------|--------|
D|--------|--------|--------|
A|--------|--------|--------|
D|2-------|--------|5-------|

e|--------|
B|--------|
G|--------|
D|000
A|000
D|000


Verse: X3
G|--------|--------|--------|--------|
D|--------|--------|--------|--------|
A|--------|--------|--------|--------|
D|22--22--|22--22--|55--55--|00--00--|

Pre-Chorus:
                             e|--------|
                             B|--------|
G|--------|--------|--------|G|--------|
D|--------|--------|--------|D|00--00--|
A|--------|--------|--------|A|00--00--|
D|22--22--|22--22--|55--55--|D|00--00--|



Chorus X4:
e|--------|--------|--------|--------|
B|--------|--------|--------|--------|
G|--------|--------|55555555|77777777|
D|22222220|2202222/|55555555|77777777|
A|22222220|2202222/|33333333|55555555|
D|22222220|2202222/|--------|--------|



(Verse X3)


(Pre-Chorus)


(Chorus)


Music Break/Bridge:
e|--------|--------|--------|--------|
B|--------|--------|--------|--------|
G|--------|--------|--------|--------|
D|--------|--------|--------|--------|
A|--------|33333333|00000000|--------|
D|22222222|--------|--------|55555555|
                                     
e|--------|--------|--------|--------|
B|--------|--------|--------|--------|
G|--------|55555555|--------|--------|
D|22222222|55555555|77777777|55550000|
A|22222222|33333333|77777777|55550000|
D|22222222|--------|77777777|55550000|

e|--------|--------|--------|--------|
B|--------|--------|--------|--------|
G|--------|55555555|--------|----7777|
D|22222222|55555555|77777777|55557777|
A|22222222|33333333|77777777|55555555|
D|22222222|--------|77777777|5555----|

e|--------|--------|--------|--------|
B|--------|--------|--------|--------|
G|--------|55555555|--------|--------|
D|22222222|55555555|77777777|55550000|
A|22222222|33333333|77777777|55550000|
D|22222222|--------|77777777|55550000|

e|--------|--------|--------|--------|
B|--------|--------|--------|--------|
G|--------|55555555|--------|--------|
D|22222222|55555555|77777777|33333333|
A|22222222|33333333|77777777|33333333|
D|22222222|--------|77777777|33333333|


(Chorus)

Fin:
e|--------|--------|--------|--------|
B|--------|--------|--------|--------|
G|--------|--------|5-------|7------7|
D|2-------|--------|5-------|7------7|
A|2-------|--------|3-------|55555557|
D|2-------|--------|--------|--------|

Notes: 
-The rhythms aren't exact. You should be able to figure it out.
-There is also a four line bass between the second chorus and the bridge that I left out
Tap to rate this tab
 
# A B C D E F G H I J K L M N O P Q R S T U V W X Y Z