Song name
# A B C D E F G H I J K L M N O P Q R S T U V W X Y Z

The Maccabees - Mary tab

My interpretation :) I think at least the chords are correct, and the lead parts are 
correct :)

E5 can be substituted for E
C#5 can be substituted for C#m
A5 can be substituted for A
G#5 can be substituted for G#m

        E A D G B E
E5 --   x 7 9 9 x x
C#5 --  x 4 6 6 x x
A5 --   5 7 7 x x x
G#5 --  4 6 6 x x x

E5                          C#5
  I was in the other room
          A5                              G#5
  when handsome was getting leather and laces

E5                       C#5
  couldnt save a family
A5                             G#5
  cause heroes wear masks and lycra

E5                                 C#5
  out, out, out, out, mary get out
E5                                 C#5
  cause your freezin, in in in in in brother get in
A                           G#5
  get your head kicked in
A                           G#5
  cause its in in in in in

E                                       C#5
  Down, down, down, down,  Heard you fell down
               E                                       C#5
  And you scraped your knee, Up up up up, Pick yourself up
            A                G#5
  You get a plaster on your cut
        A         G#5
  'Cause its sewn up
    A       E
  It's sewn up


------------------------|
--7---9---7-------------|
-------------9-6-9------|
------------------------|
------------------------|
------------------------|

------------------------|
--7-9-7-----------------|
--------9-6-9-----------|
------------------------|
------------------------|
------------------------|

You wish that it was you.. etc

---------------7--------|
--7-9-7--------7--------|
--------9-6-4--4--------|
------------------------|
------------------------|
------------------------|

------------------------|
--7-9-7-----------------|
--------9-6-9-----------|
------------------------|
------------------------|
------------------------|

------------------------|
--7-9-7-----------------|
--------9---------------|
------------------------|
------------------------|
------------------------|

Chords for the next verse:

E|C#5
E|C#5
A|G#5
A


E|C#5
E|C#5
A|G#5
A|G#5
A|E


So you've got yourself in a hole
And you cant get out
I wont be there, cant be around
So hold me down
And let you know
'Bout the places we cant go

I wont let go, I wont hold you back
I'm falling away
I'm paying the price, im willing to pay
So, willing to pay the price you pay
And the reason i cant stay
'Cause you live so far away


------------------------|
--7---9---7-------------|
-------------9-6-9------|
------------------------|
------------------------|
------------------------|

------------------------|
--7-9-7-----------------|
--------9-6-9-----------|
------------------------|
------------------------|
------------------------|

You wish that it was you.. etc

---------------7--------|
--7-9-7--------7--------|
--------9-6-4--4--------|
------------------------|
------------------------|
------------------------|

------------------------|
--7-9-7-----------------|
--------9-6-9-----------|
------------------------|
------------------------|
------------------------|

------------------------|
--7-9-7-----------------|
--------9---------------|
------------------------|
------------------------|
------------------------|

------------------------|
--7-9-7-----------------|
--------9-9-b-11-b-9----|
------------------------|
------------------------|
------------------------|

----------------------------------------------|
--7-9-7---------------------------------------|
--------9---9-9-9-9---4---4-4-4---9-9-9-9-----|
----------------------------------------------|
----------------------------------------------|
----------------------------------------------|

--------------------------------------------------|
--------------------------------------7--9--7-----|
-11-11-11-11-11-11-11-11----9-9-9-------------9--9|
--------------------------------------------------|
--------------------------------------------------|
--------------------------------------------------|
This part is very rough, you may need to figure it out yourself a bit ^^

So out, out, out Mary get out
'Cause your freezing and in
In, in, in

(seems to mess around with E at the last part, then ends on A)
Brother get in...
Tap to rate this tab
# A B C D E F G H I J K L M N O P Q R S T U V W X Y Z