Song name
# A B C D E F G H I J K L M N O P Q R S T U V W X Y Z

The Maine - Hello World chords

Highlighted       Show chord diagrams
Hello World by The Maine

Intro: A

E|----------------------------------------------|
B|----------------------------------------------|
G|--9----6-----4-----6-----4-----6-----4-----6--|
D|--x----x-----x-----x-----x-----x-----x-----x--|
A|--7----4-----2-----4-----2-----4-----2-----4--|
E|----------------------------------------------|

E|----------------------------------------------|
B|----------------------------------------------|
G|--9----6-----4-----6-----4-----6-----4-----2--|
D|--x----x-----x-----x-----x-----x-----x-----0--|
A|--7----4-----2-----4-----2-----4-----2-----0--|
E|----------------------------------------------|

Verse: 
A
Hello world 
A         Dsus2-A
Hello sun 
A
Man on the moon 
A              Dsus2-A
Man on the run 
A
It's takin' town
A                Dsus2-A       
It's movin' slow 
A
My whiskey straight 
A
Your whiskey cold 


Chorus:
A
And I said, 
F#m - A  -  Dsus2 
 Hello      world (x4)
E
Wherever you come from 

(INTRO)

Verse:
A
Let's take a trip 
A                 Dsus2-A
You can come along 
A
We'll take a sip 
A                Dsus2-A
We'll sing a song 
A
Let's take it down 
A                Dsus2-A
All nice and slow  
A              
Your whiskey straight 
A
And my whiskey cold 


Chorus:
A
And I said, 
F#m -  A  - Dsus2 
 Hello      world (x4)
E
Wherever you come from 

(INTRO)

Bridge:
E - F#m - A
Hello world (x4)
Hello something 


Instrumental: F#m - A - Dsus2  


Chorus:
F#m -  A  - Dsus2 
 Hello      world (x4)
E
Wherever you come from 


Outro:

(Intro Riff) A

A
Hello (hello)
Hello (hello) 
Hello (hello)
Hello (HELLO)!


Tabbed by ilsensine.
Tap to rate this tab
# A B C D E F G H I J K L M N O P Q R S T U V W X Y Z