Song name
# A B C D E F G H I J K L M N O P Q R S T U V W X Y Z

The Mary Janes - Friends chords

http://www.irishmusiccentral.com/themaryjanes/


Standard Tuning.

This is the gist of the song, based of off this live performance by Mic's friends Glen 
Hansard: http://www.youtube.com/watch?v=PlhClp8tex8


Verse

E|--0--0-----------------------------------------------------|
B|--0--0-----------------------------------------------------|
G|--7--6-----------------------------------------------------|
D|--9--7-----------------------------------------------------|
A|--9--7-----------------------------------------------------|
E|--7--5-----------------------------------------------------|

Chorus

E|--0--0--|
B|--7--5--|
G|--7--6--|
D|--9--7--|switch between these two chords and the one's used in the "verse"
A|--9--7--|
E|--7--5--|

Bridge/Build Up From Chorus Into Chorus

E|--0--0--0---0----------------------------------------------|
B|--0--0--0---0----------------------------------------------|
G|--7--7--7---9----------------------------------------------|
D|--9--9--9---9----------------------------------------------|
A|--9--9--9---9----------------------------------------------|
E|--7--9--10--12---------------------------------------------|

Second guitar:

E|-----------------------------------------------------------|
B|-----------------------------------------------------------|
G|--------7--6-------(6)-------------------------------------|
D|-----9--------7-----7--------------------------------------|
A|-----------------7-----------------------------------------|
E|--7--------5-----------------------------------------------|

Secound guitar (second time around):

E|-----------------------------------------------------------|
B|-----------------------------------------------------------|
G|--------7--6--------6--------------------------------------|
D|--------------7--------------------------------------------|
A|-----9-----------7-----------------------------------------|
E|--7--------5-----------------------------------------------|
Tap to rate this tab
 
# A B C D E F G H I J K L M N O P Q R S T U V W X Y Z