Song name
# A B C D E F G H I J K L M N O P Q R S T U V W X Y Z

The Mayfield Four - Always tab

Found this on their website, but it was a jpg so I transcribed to txt... hope you enjoy it

Song: Always
Band: The Mayfield Four
Album: Fallout

  Intro 4x
E|---------|----------------------------------------------------------------|
B|---------|----------------------------------------------------------------|
G|-5-5-----|-5-5-----5-5-----5-5-----5-5---------5-5-----5-5-----5-5-----5-5|
D|---------|----------------------------------------------------------------|
A|-----3-3-|-----3-3-----3-3-----3-3-----3-3-1-1-----1-1-----1-1-----1-1----|
E|---------|----------------------------------------------------------------|

E|---------------------------------------------------------------|
B|---------------------------------------------------------------|
G|-5-5-----5-5-----5-5-----5-5-----5-5------5-----5-----5-----5--|
D|---------------------------------------------------------------|
A|-----0-0-----0-0-----0-0-----0-0-----0-33---333---333---333----|
E|---------------------------------------------------------------|

E|----------------------------------------------------------------|
B|----------------------------------------------------------------|
G|-----5-----5-----5-----5-----5-----5-----5-----5-----5-----5----|
D|----------------------------------------------------------------|
A|-333---333---333---333---311---111---111---111---100---000---00-|
E|----------------------------------------------------------------|

Chorus (listen for strum pattern)

E|------------------------------------------------------|
B|------------------------------------------------------|
G|--5-----------3------2------5---7---------------------|
D|--5-----------3------2------3---5---------------------|
A|--3-----------1------0--------------------------------|
E|------------------------------------------------------|
Tap to rate this tab
# A B C D E F G H I J K L M N O P Q R S T U V W X Y Z