Song name
# A B C D E F G H I J K L M N O P Q R S T U V W X Y Z

The Metros - Last Of The Lookers tab

Hey there, this tab is definitely not 100% correct but i thought id stick up what i 
most of it is, any corrections or additions would be great! ;) thanks

e|---------------------------------------------------------------|
B|----------5---5----------------5---5--------5---5--------------|
G|----------5---5----------------5---5-7b-5---5---5--------------|
D|----5-6-7---7---7---5-6-7-6-7----7--------7---7---7---5-6-7-6-7|
A|----5----------------------------------------------------------|
E|---------------------------------------------------------------|
7
e|---------------------------------------------------------------|
B|--5----5----------7---7---------------7---7-------------5----5-|
G|--5----5--7b-5-7r-7-5-7--5--5-6-7-6-7-7-5-7--7-5-5p7----5----5-|
D|----7-----------------------------------------------7----7----7|
A|---------------------------------------------------------------|
E|---------------------------------------------------------------|

                          (i know this bit isnt right , but it sounds a little the same 
)
e|---------------------------------------------------------------|
B|------------5----5-------5-5-5-5---7-5------------------5---5--|
G|------------5----5-------5-5-5-5-------7-5--------------5---5--|
D|--5-6-7-6-7---7----7-5-7-------------------7------5-6-7---7---7|
A|--------------------------------------------------5------------|
E|---------------------------------------------------------------|

e|---------------------------------------------------------------|
B|-------------5---5----5-5--------------------------------------|
G|-------------5---5----5-5--------------------------------------|
D|--5-6-7-6-7----7---7------7------------------------------------|
A|---------------------------------------------------------------|
E|---------------------------------------------------------------|
Tap to rate this tab
 
# A B C D E F G H I J K L M N O P Q R S T U V W X Y Z