Song name
# A B C D E F G H I J K L M N O P Q R S T U V W X Y Z

The Moog - When I See You tab

This is only the chorus but it still sounds good.
      

     
        Chorus    W/ Distortion

 e |-----------|-----------|-----------|-----------|
 B |-----------|-----------|-----------|-----------|
 G |-----------|-----------|--8---8----|--4---4----|
 D |--4---4----|--8---8----|--8---8----|--4---4----|  X4
 A |--4---4----|--8---8----|--6---6----|--2---2----|
 E |--2---2----|--6---6----|-----------|-----------|
  
   Then Play:             let Ring    

 e |----------------------|-------|
 B |----------------------|-------|
 G |---4-4-4-4-4-4-4-4----|-------|
 D |---4-4-4-4-4-4-4-4----|--4----| 
 A |---2-2-2-2-2-2-2-2----|--4----|
 E |----------------------|--2----| 

   
   Chorus tabbed by Franco
Tap to rate this tab
 
# A B C D E F G H I J K L M N O P Q R S T U V W X Y Z