Song name
# A B C D E F G H I J K L M N O P Q R S T U V W X Y Z

The Moon Loungers - Song About Love chords

Highlighted       Show chord diagrams
Song About Love - cover by the Moon Loungers

Video here - https://www.youtube.com/watch?v=lYIc0ErYmz4

Please note the guitar is down-tuned a semi-tone flat (to Eb) in this version. 


CHORDS 

          EADGBE
         --------
Dadd11    x54030
Dadd11/G  354030
D         xx0232
Em        022000
A         x02220
Asus2     x02200
Cadd9     x32030
G         320033
A/G       30222x
A/F#      20222x
A/E       00222x
Dsus4     xx0233



INTRO

|  Dadd11  |  Dadd11/G  |  Dadd11  |  Dadd11/G  |


VERSE 1

Dadd11                                             Dadd11/G
You tell me all the things you do, you tell me that it's up to you
Dadd11                                        Dadd11/G
Crying in the peaceful place, telling all the things you hate


BRIDGE

Dadd11                                      Dadd11/G
But out there in the future, maybe are there rainbows
                    D                    Em                       A   Asus2   A
There's no songs without love with your eyes shut you cry in your bed
 

CHORUS

                  D                  Cadd9
Is that what you wanted, songs about love?
                 G
Is that what you hoped you would find when it's burning inside
       A          A/G        A/F#
But a song about love's not enough
   A/E           D        Dsus4  D               Cadd9
So what are you here for?          What are you needing?
             G
Songs about mem'ries that harden then shatter your mind
        A        A/G       A/F#        A/E            D   Dsus4  D
Like a constant reminder I just wanna find where you are
A                          Dadd11   Dadd11/G   Dadd11   Dadd11/G
I just wanna find where you are 


VERSE 2

Dadd11                                            Dadd11/G
Hold you and your eyes fall down, you barely even make a sound
Dadd11                                        Dadd11/G
Crying in the peaceful night, showing all the things you hate 


REPEAT BRIDGE AND CHORUS






INTRO TAB

E-----------0-|-------------|-------------|-------------|
B-------0h3---|-------3-----|-------3-----|-------3-----|
G-------------|-----0---0---|-----0---0---|-----0---0---|
D-0h4-4-------|---4-------4-|---4-------4-|---4-------4-|
A-------------|-5-----------|-5-----------|-5-----------|
E-------------|-------------|-------------|-------------|

E-----------0-|-------------|-------------|-------------|
B-------0h3---|-------3-----|-------3-----|-------3-----|
G-------------|-----0---0---|-----0---0---|-----0---0---|
D-0h4-4-------|---4-------4-|---4-------4-|---4-------4-|
A-------------|-------------|-------------|-------------|
E-------------|-3-----------|-3-----------|-3-----------|



VERSE TAB

E-----------0---|-------------|-------------|-------------|
B-------0h3-----|-------3-----|-------3-----|-------3-----|
G---------------|-----0---0---|-----0---0---|-----0---0---|
D-0h4-4-------4-|---4-------4-|---4-------4-|---4-------4-|
A---------------|-5-----------|-5-----------|-5-----------|
E---------------|-------------|-------------|-------------|

E-----------0---|-------------|-------------|-------------|
B-------0h3-----|-------3-----|-------3-----|-------3-----|
G---------------|-----0---0---|-----0---0---|-----0---0---|
D-0h4-4-------4-|---4-------4-|---4-------4-|---4-------4-|
A---------------|-------------|-------------|-------------|
E---------------|-3-----------|-3-----------|-3-----------|

Tap to rate this tab
# A B C D E F G H I J K L M N O P Q R S T U V W X Y Z