Song name
# A B C D E F G H I J K L M N O P Q R S T U V W X Y Z

The Morning Benders - Excuses tab

-------------------------------------------------------------------------------
			     EXCUSES - The Morning Benders
-------------------------------------------------------------------------------
Tabbed by: Does it matter?
Email: No.

Tuning: Standard

The chords posted elsewhere are correct (F, Dm, Gm, C through the whole song), but I've 
the violin theme stuck in my head all day. So here it is:

Intro:
e|--------------------------12--10----------|
B|-13-(let ring)--------------------10------|
G|------------------------------------------|
D|------------------------------------------|
A|------------------------------------------|
E|------------------------------------------|

2x:
e|-------------------------12--10-----------|
B|-10-11-13-15-10-----------------10--------|
G|------------------------------------------|
D|------------------------------------------|
A|------------------------------------------|
E|------------------------------------------|

Right before percussion enters:
e|-12---------15----------------------------|
B|------------------------------------------|
G|------------------------------------------|
D|------------------------------------------|
A|------------------------------------------|
E|------------------------------------------|

Main theme:
e|-13-(long)-13-12-10-------------------------------12-13-|
B|---------------------13-11-10---13-6---10-8-11-13-------|
G|--------------------------------------------------------|
D|--------------------------------------------------------|
A|--------------------------------------------------------|
E|--------------------------------------------------------|

Now go impress your friends.

************************************

| /   slide up
| \   slide down
| h   hammer-on
| p   pull-off
| ~   vibrato
| +   harmonic
| x   Mute note
| b   Bend
| pb  Pre-bend
| br  Bend release
| pbr Pre-bend release
| brb Bend release bend

************************************
Tap to rate this tab
 
# A B C D E F G H I J K L M N O P Q R S T U V W X Y Z