The Morning Benders - Wasted Time tab

Standard tuning

Chords used:
Em: x 7 9 9 8 7
Bm: 7 9 9 7 7 7
G:  3 5 5 4 5 5
Am: 5 7 7 5 5 5
A:  5 7 7 6 5 5
C:  8 10 10 9 8 8
D:  10 12 12 11 10 10

Intro:

Palm muted
e|---------------------------------------------------|
B|---------------------------------------------------|
G|---------------------------------------------------|
D|------------------------------7-----7-----7-----7--|x2
A|---2--2--2--2--2--2--2--2--9-----9-----9-----9-----|
E|--0--3--0--3--0--3--0--3--7--7--7--7--7--7--7--7---|

 Second guitar enters and plays: Em Bm Em Bm

Em                          Bm  
Watching the clock steal my time
Em                              Bm
Turning other people's words to mine
Em                            Bm
Sometimes they key just won't fit
Em                    Bm
Try to melt it down a bit

G          Am                 Em
So are you through wasting my time?
G           A                    Em
Or have you brought me something new?
C       A     D      Em
Because all I see is you

 Then comes this little diddy:
e|-------------------------|--------------------------|
B|-------------------------|--------------------------|
G|--4/12-12--11/9--9/11----|--4/12-12--11/9--9/11-----|
D|-------------------------|--------------------------|
A|-------------------------|--------------------------|
E|-------------------------|--------------------------|

Em                              Bm
Playing games, but this is real life
Em                               Bm
This one is worth putting up the fight
Em                             Bm
You're a child in the midst of things
Em                          Bm
You're a beast in a woman's frame

G          Am                 Em  
So are you through wasting my time?
G           A                    Em
Or have you brought me something new?
C       A     D      Em
Because all I see is you 

 Outro:
e|-------------------------|------------------0-0-0-0-0--0--|
B|-------------------------|------------------3/5/3/1/0--0--|
G|--4/12-12--11/9--9/11----|--4/12-12--11/16-------------0--|
D|-------------------------|-----------------------------2--|
A|-------------------------|-----------------------------2--|
E|-------------------------|-----------------------------0--|

  And then the song goes straight in to Chasing Ghosts, which I
  plan to tab when I have time.
Tap to rate this tab
 
# A B C D E F G H I J K L M N O P Q R S T U V W X Y Z