Song name
# A B C D E F G H I J K L M N O P Q R S T U V W X Y Z

The Mostar Diving Club - Forever Goodbye tab

there are two ways of playing on is easier the other is proper.

on the high E string tune up to Fb

/ = slide
p = pull off

THE FIRST WAY

INTO

Fb|------0------------0------------0------------0------------0------------0------------0---------|
B |----0---0--------0---0--------0---0--------0---0--------0---0--------0---0--------0---0-------|
G |--6-------6/4--4-------4/3--3-------3/4--4-------4/1--1-------1/3--3-------3/4--4-------4-----|
D |----------------------------------------------------------------------------------------------|
A |----------------------------------------------------------------------------------------------|
E |----------------------------------------------------------------------------------------------|

Fb|------0-------|
B |----0---0-----|
G |--4-------4---|     X2
D |--------------|
A |--------------|
E |--------------|


2ND GUITAR OVER INTRO


Fb|---7p0-----5-----4-----0--|
B |--------------------------|
G |--------------------------|    X2
D |--------------------------|
A |--------------------------|
E |--------------------------|




THE SECOND WAY (THIS WILL SOUND LIKE THE SONG)





Fb|------0-------------0------------0------------0------------0------------0------------0--------|
B |----0---0---------0---0--------0---0--------0---0--------0---0--------0---0--------0---0------|
G |----------------------------------------------------------------------------------------------|
D |--11------11/9--9-------9/8--8-------8/9--9-------9/6--6-------6/8--8-------8/9--9-------9----|
A |----------------------------------------------------------------------------------------------|
E |----------------------------------------------------------------------------------------------|

Fb|------0-------|
B |----0---0-----|
G |--9-------9---|     X2
D |--------------|
A |--------------|
E |--------------|


WITH SAME SECOND GUITAR OVER INTRO
Tap to rate this tab
# A B C D E F G H I J K L M N O P Q R S T U V W X Y Z