Song name
# A B C D E F G H I J K L M N O P Q R S T U V W X Y Z

The Mutton Birds - Dominion Road tab

Here is the whole song, including the solo, plus some specific chord voicings.

Chords used:
B:       7 9 9 8 7 7
A:       5 7 7 6 5 5
E:       0 2 2 1 0 0
C#m:     9 11 11 9 9 9
E(ii):   x 7 9 9 9 7
F#:      2 4 4 3 2 2
G#m:     4 6 6 4 4 4
F#m:     2 4 4 2 2 2
C#m(ii): x 4 6 6 5 4

Intro Chords and Riff:
    B        A      E    add a quick C#m just before repeating the intro
e|-------------------------------------------------------|
B|-------------------------------------------------------|
G|--8--8-9-8-------------------------------------------- |
D|-----------7-9-11-9-9-11-9---9-------------------------|
A|---------------------------11--------------------------|
E|-------------------------------------------------------|

Intro riff is played four times then:

B                E
Dominion Road is bending;
A         E     B
under itís own weight,
B               E
Shining like a strip,
           A      E     B
cut from a sheet metal plate,
E                       Play Intro once
Cause its just been raining.

B                 E(ii)
Janie reached the point where she knew what he
A               E(ii)      B
meant before he opened his mouth,
B                    E(ii)
He couldnt say the same or hed have
A               E(ii)   B
guessed she was moving south, with
E(ii)       B
one of his friends.

                    F#                       E          B
But its getting better now, he found it in him to forgive,
              F#            E                B
He walked the city, and he found a place to live
             F#
In a halfway house,
        E             Play Intro twice
halfway down Dominion Road.


B                          E(ii)
He watched Janes brother sell the house he
A       E(ii)     B
felt no sense of loss,
B           E(ii)
More like a mountain-climber
        A          E(ii)     B
looking back having made it across
    E(ii)     B
the steepest face.

                  F#                E                 B
Oh but hes still climbing, see him trying to cross the street,
              F#                  E                B
He tests his footing, like he was up ten thousand feet
          F#              E              Play shortened intro
above the clouds, halfway down Dominion Road.

Shortened Intro:
    B         A     E
e|-----------------------------------------|
B|-----------------------------------------|
G|--8--8-9-8-------------------------------|
D|-----------7-9-11-9----------------------|
A|-----------------------------------------|
E|-----------------------------------------|

Woah-Oohhhhh_______

Solo with Chords
   G#m                             A
e|-12-12--14-12----12-12--14-12---12-12--14-12--12--------------|
B|------12-----12-------12-----12------12-----12----------------|
G|--------------------------------------------------------------|
D|--------------------------------------------------------------|
A|--------------------------------------------------------------|
E|--------------------------------------------------------------|

   F#m                               A
e|-12-12--14-12----12-12--14-12---12-12---14-12-----------------|
B|------12------12------12------12-----12------12---------------|
G|--------------------------------------------------------------|
D|--------------------------------------------------------------|
A|--------------------------------------------------------------|
E|--------------------------------------------------------------|

   G#m                             A
e|-12-12--14-12----12-12--14-12---12-12--14-12--12--------------|
B|------12-----12-------12-----12------12-----12----------------|
G|--------------------------------------------------------------|
D|--------------------------------------------------------------|
A|--------------------------------------------------------------|
E|--------------------------------------------------------------|

   F                               A        E       B
e|-12-12--14-12----12-12--14-12---12-12--14-12------12\----|
B|------12-----12-------12-----12------12---12------11\----|
G|---------------------------------------------------------|
D|---------------------------------------------------------|
A|---------------------------------------------------------|
E|---------------------------------------------------------|


                   F#                         E                B
But its getting better now, he rests his head on a window sill,
                F#                    E             B
He watches the city, he can see the antennas in the hills
                 F#
From the halfway house,
         E
halfway down Dominion Road.

Last section - play twice
B       F#            C#m(ii)
Halfway down, halfway down
        A      E
Halfway down Dominion Road

End with Intro Riff x4
Tap to rate this tab
# A B C D E F G H I J K L M N O P Q R S T U V W X Y Z