Song name
# A B C D E F G H I J K L M N O P Q R S T U V W X Y Z

The Naked Brothers Band - Curious tab

This one is correct sorry I was missing one part.

Im so curious Of how you see me
1-----4---------2-----------------|
2-----4---------2-----------------|
3-----6---------4-----------------|
4-----6---------4-----------------|
5-----4---------2-----------------|
6-----4---------2-----------------|

Curious of what went through your head
1-----4---------2-----------------6-|
2-----4---------2-----------------6-|
3-----6---------4-----------------7-|
4-----6---------4-----------------8-|
5-----4---------2-----------------8-|
6-----4---------2-----------------6-|

Will I ever know
1-----4---------4-----------------|
2-----5---------4-----------------|
3-----4---------5-----------------|
4-----6---------6-----------------|
5-----4---------6-----------------|
6-----4---------4-----------------|

Will I ever know
1-----2---------6-----------------|
2-----2---------6-----------------|
3-----3---------7-----------------|
4-----4---------8-----------------|
5-----4---------8-----------------|
6-----2---------6-----------------|

Im Confused puzzled and in a daze
1-----4---------4-----2--------6----|
2-----5---------4-----2--------6----|
3-----4---------5-----3--------7----|
4-----6---------6-----4--------8----|
5-----4---------6-----4--------8----|
6-----4---------4-----2--------6----|

I Know you wouldnt treat me that way
1-----4---------4-----2--------6----|
2-----5---------4-----2--------6----|
3-----4---------5-----3--------7----|
4-----6---------6-----4--------8----|
5-----4---------6-----4--------8----|
6-----4---------4-----2--------6----|

I Got you on my mind everyday
1-----4---------4-----2--------6----|
2-----5---------4-----2--------6----|
3-----4---------5-----3--------7----|
4-----6---------6-----4--------8----|
5-----4---------6-----4--------8----|
6-----4---------4-----2--------6----|

I Know you wouldnt treat me that way
1-----4---------4-----2--------6----|
2-----5---------4-----2--------6----|
3-----4---------5-----3--------7----|
4-----6---------6-----4--------8----|
5-----4---------6-----4--------8----|
6-----4---------4-----2--------6----|
Tap to rate this tab
# A B C D E F G H I J K L M N O P Q R S T U V W X Y Z