Song name
# A B C D E F G H I J K L M N O P Q R S T U V W X Y Z

The National - Pink Rabbits tab

This is a piano arrangement for guitar
Capo 2.
Its not a quite accurate arrangement, but its a lot fun to just play
around this pattern.

e:-------------------------------------------------------|
b:-1-1-------1----3------0---3-----3----1--1-------------|
g:-0-2-------2-0--2------4-0-0-----4-2--0--0-------------|
d:-2-2-----2------4----0-----0---0------2--2--2----------|
a:-0-0------------0--------------------------------------|
E:---------------------------3-----3----3----------------|

  I couldnt find quiet...
e:----------------------------------------------|
b:--1-------1----3------0---3-----3----1--------|
g:--2-------2-0--2------4-0-0-----4-2--0--0-----|
d:--2-----2------4----0-----0---0------2----2---| x 4
a:--0------------0------------------------------|
E:--------------------------3-----3----3--------|

e:----------------------------------------------|
b:-1-------1----3------0---3-----3----1---------|
g:-2-------2-0--2------4-0-0-----4-2--0--0--0---|
d:-2-----2------4----0-----0---0------2----2-2--|
a:-0------------0-------------------------------|
E:-------------------------3-----3----3---------|
 And everybody was gone..
e:----------------------------------------------------|
b:-1------------1-------------------------------------|
g:-2------------0--0--0-------------------------------|
d:-2------------2----2-2------------------------------| x 2
a:-0--------------------------------------------------|
E:--------------3-------------------------------------|

Play this part twice from the chorus.

Just paly around these chords.

I was solid gold..
G-D-Am-C

Continue with main part from here

Am so surprised you want to dance with me now...
e:----------------------------------------------|
b:--1-------1----3------0---3-----3----1--------|
g:--2-------2-0--2------4-0-0-----4-2--0--0-----|
d:--2-----2------4----0-----0---0------2----2---| x 4
a:--0------------0------------------------------|
E:--------------------------3-----3----3--------|

At the outro its just the same as the part before
Just play some notes between the chords:

You said it would be painless...
G-D-Am-C

Tabbed by Rasmus Just.

Hej Xandovitch
Tap to rate this tab
# A B C D E F G H I J K L M N O P Q R S T U V W X Y Z