Song name
# A B C D E F G H I J K L M N O P Q R S T U V W X Y Z

The Negro Problem - Bleed tab

Highlighted       Show chord diagrams
-------------------------------------------------------------------------------
			     BLEED - The Negro Problem
-------------------------------------------------------------------------------

Tuning: Standard

Listen to the song for the picking pattern.

Chords used:
 
D G Bm A Em D/F# Cadd7 Em7
e|-------2-------3-------2-------0-------0-------2-------3-------3-------|
B|-------3-------3-------3-------2-------0-------3-------3-------3-------|
G|-------2-------0-------4-------2-------0-------2-------0-------0-------|
D|-------0-------0-------4-------2-------2-------0-------2-------2-------|
A|-------0-------2-------2-------0-------2-------0-------3-------2-------|
E|-------0-------3-------0-------0-------0-------2-------0-------0-------|



D G    
I don't bleed you
Bm A
I just need to see you
Em Bm
I would love to turn your vice
Em Bm
And make a silly error twice
D G 
She isn't dreamy
Bm A
She just needs to see me
Em Bm
Drowning in the mainstream flow
Em Bm
And frowning wherever I go
D D/F# Cadd7 Em7 G
So come down now little one
D D/F# Cadd7 Em7 G
Leave your place in the sun
D G 
I come in bleeding
Bm A
Stumbling round and needing
Em Bm
I would love to burn your trash
Em Bm
And make a picture with the ash
D G 
I come in storming
Bm A
Before your cloud starts forming
Em Bm
I would love to cut your hair
Em Bm
And leave an empty promise there
D D/F# Cadd7 Em7 G
So come down now little one
D D/F# Cadd7 Em7 G
Leave your place in the sun
D G 
Start your engine
Bm A
But don't forget to mention
Em Bm
To your friend that I need work
Em Bm
Don't remind her I'm a jerk
D G 
Enter clowning
Bm A
Enjoy me while I'm downing
Em Bm
Drink tickets and poison herbs
Em Bm
Courtesy of the suburbs
D D/F# Cadd7 Em7 G
So come down now little one
D D/F# Cadd7 Em7 G
Leave your place in the sun 

http://www.negroproblem.com/
Tap to rate this tab
# A B C D E F G H I J K L M N O P Q R S T U V W X Y Z