Song name
# A B C D E F G H I J K L M N O P Q R S T U V W X Y Z

The New Duncan Imperials - Blame It On Me tab

Artist: New Duncan Imperials
Album: End of Phase One
Title: Blame it on Me

Tabbed by: Julian Habenicht
E-Mail: letszapago@gmail.com


Special thanks to UG-user "Edward Teach" for working out the lyrics. Thanks!


   -------------------------------
 ---  * - harmonics              ---
--    (b)r - release bend          --
 ---  (the rest should be clear) ---
   -------------------------------


Intro played 4x        
          
          |-----Chorus------|
          
          |---Riff---|
e--x-x-x-----------------0---| 
B--x-x-x-----------------0-0-|  
G--x-x-x---------------1---1-| 
D--x-x-x---------------2---2-| 
A--x-x-x---------------2-----|  
E--x-x-x--0-5b-0-3b-0--------| 

Verse 1
E                                             Riff
Your lights gone out and now you, wonder why
E
It's time to face some things you can't deny
A
how your future's turing to your past
B5                          C5       D5
how the things you won't get let for last yeah

Chorus

Blame it on me

Verse 2
E                                            Riff
Your power was gone and you don't understand
E
You want someone to take you by the hand
A
call the police baby, call yourself
B5                     C5     D5
call on me when you got noone else yeah

Chorus

Blame it on me, oh baby
Blame it on me


Solo + Chords

   E
e-----------------------------------------------------------|
B--10b12br10p8---10b---10b----10b12br10p8---10b12--12-12-12-|
G--------------9-----9-----9--------------9--------12-12-12-|
D-----------------------------------------------------------|
A-----------------------------------------------------------|
E-----------------------------------------------------------|

e----------------------------------------------------------------|
B-10-b12-br10p8---10b---10b---10--12br10p8---10--10b12-8---8-10/-|
G---------------9-----9-----9--------------9-------------9-------|
D----------------------------------------------------------------|
A----------------------------------------------------------------|
E----------------------------------------------------------------|
  
  A
e-------10-------10-------12~--10b12--12~-12~--12b-p10-----|
B-10/12----10/12----10/12------------------------------12--|
G----------------------------------------------------------|
D----------------------------------------------------------|
A----------------------------------------------------------|
E----------------------------------------------------------|

  B                                       C                     D
e-----------------------15p12p10-15p12p10-----------------------------------|
B-10b12-10-8---8-10-b12-------------------10b12br10-------12-------12-11/12-|
G------------9--------------------------------------11/12-12-11/12-12-11/12-|
D---------------------------------------------------------------------------|
A---------------------------------------------------------------------------|
E---------------------------------------------------------------------------|

              E
e-------------10b12--7-10b12-10b12--10b12br10p7---------------------------|
B-10b12br10p8------------------------------------10b-8-10b12br10p8--------|
G------------------------------------------------------------------9------|
D-------------------------------------------------------------------------|
A-------------------------------------------------------------------------|
E-------------------------------------------------------------------------|

Verse 3
E                                           Riff
Your power's gone and you can't get it back
E
Out in the garage with your Marshall stack
A
blame the outlet honey, blame the plug
B5                      C5       D5
blame the shovel for the hole you dug


Chorus

Outro

E 
E7


e------------------0--------------|
B------------------0--------------|
G------------------1--------------|
D------------------2--------------|
A------------------2--------------|
E--0-5b-0-3b-0-----0--0-5b-0-3b-0-|


 |-----------------P.M.--------------|
e---------------------------------------------------------------|
B---------------------------------------------------------------|
G------------------------------------------------------------9--|
D------------------------------------------0-2-0-------------9--|
A-------------------------------------2b-r-------------------7--|
E-0-0-0-0-0-0-0-0-3-0-3-2-0-3-2-0-5-0------------3b-0-3b--0-----|


e--------------------|
B--------------------|
G--12b-r--12b*-12b*--|
D--12b-r--12b*-12b*--|
A--------------------|
E--------------------|
Tap to rate this tab
 
# A B C D E F G H I J K L M N O P Q R S T U V W X Y Z