Song name
# A B C D E F G H I J K L M N O P Q R S T U V W X Y Z

The New Electric Sound - Suitcase tab

Standard Tuning

INTRODUCTION

Guitar 1 (capo 8)

-------------------------------------|
--------------1----------------------|
-----0------2--2-----0---------------|
---2--2---2--------2--2-----0---0----|
-3------0--------2--------2---2------|
------------------------3------------|

Guitar 2 (capo 8)

-------------0--------------------------|
-----1--------1------0-----0------------|
---0--0---2----2---0--0--0--0-----------|
-2------2--------2------0----0----------|
----------------------------------------|
----------------------------------------|


"Only if you..."

F F Am G
F F Em G

CHORUS

C Em F F
Am Em F F

(repeat)

SOLO

(B string) --8-8-6-6-5-5-6-8-8-6-6-5-5----5-5-3-3-2-2-3-5-5-3-3-2-2-
Tap to rate this tab
# A B C D E F G H I J K L M N O P Q R S T U V W X Y Z